Acordes de Guitarra » R »la Rondalla de Saltillo » Como Expresar (Tab)
  • Letra y Acordes
    Intro: G-A-D-Bm-G-A
    
    D                  F#m             G
    ¿Cómo expresar, con palabras mujer,
              A           D       G
    todo este mundo que desatas en mi?
                A
    ¿cómo explicarte?
    
    
      D             F#m           G
    ¿Cómo podré, al poeta robar,
            A          D         G
    alguna frase para hablarte de amor?
           A
    para decirte
    
    
           D                   F#m
    Que te amo como nunca imaginé,
    
  • Letra y Acordes
      G                    A             D              Bm
    e------------------------------------14-----14------12-----12-----10
    B-8----8---8----8------5---5---5---5----15-----15-----14-----14---
    G---7----7---7----7--6---6---6---6---------------------------------
     G                A
    Naaaa na,na,na,naaaa
    
    Aquí entra Un pequeño bajeo
    y enseguida comienza la cancion
    E-----------------------
    A-0----2------4---------
    D-----------------------
    
      D
    Cómo expresaaaar,
        F#m               G
    Con palabras mujeeeer,
               A          F#m       G*
    Todo este mundo que desatas en miiii
              A
    
  • Tablatura
             C                                   Em
    
    E |- - - - - - - - - - - - - - - - - - - - - - - - - - - - - - -
    A |- 3 - - - - - - - - - - - - - - - 3 -2 - - - - - - - - - - -2
    D |- - - - - - - - - - - - - - - - - - - - - - - - - - - - - - -
    G |- - - 0- - -0- - - - 0 - - - - - - - - -0 -  -0 - - 0- -- --
    B |- - - - - 1 - - - - - - - 1- - - - - - - --0- - - - - -0- - -
    E |- - - - - - - - - - - - - - - - - - - - - - - - 0- - - -- - -
    
           F
    E |- - -1- - - - - - - - - - - - - - - - -
    A |- - - - - - - - - - - - - - - - - 3- -
    D |- - - - - - - - - - - - - - - - - - - -
    G |- - - - 2 -   -2 - - - 2- - - - - - - -
    B |- - - - - -1 - - - - - -  1- - - - - - -
    E |- - - - - - - - --1- - - - - - - - - - -
    
              G
    E |- - - - 3- - - - - - - - - - - - - - - - - - -
    A |-  - - - - - - - - - - - - - - - - - - - - - -
    
  • +
    ¡Colabora con nosotros!
    Envíanos tu versión de esta canción

Letra de Como Expresar
¿Cómo expresar, con palabras mujer,
todo este mundo que desatas en mi?
¿cómo explicarte?
¿Cómo podré, al poeta robar,
alguna frase para hablarte de amor?
para decirte
Que te amo como nunca imaginé,
que te quiero y eso es todo lo que sé,
separarnos por tan poco fue un error,
el amor hoy me derrota, y aquí estoy.
Poema:
Hoy hoy que el tiempo a pasado
en el que tu y yo nos hemos separado
me he dado cuenta que fue un gran error el habernos distanciado
arrepentido aquí estoy dedicándote con el corazón esta canción.
Hoy quisiera volver, a temblar en tu piel,
recorrerla tantas veces, hasta enloquecer,
hacerte mía, otra vez
Que te amo como nunca imaginé,
que te quiero y eso es todo lo que sé,
separarnos por tan poco fue un error,
el amor hoy me derrota, y aquí estoy.
Te amo tanto y tanto amor,
y eso todo lo que sé,
separarnos por tan poco fué un error,
el amor hoy me derrota, y aquí estoy.
y aqui estoy.



© LaCuerda.net · aviso legal · privacidad · contacto