Tablatura para Bajo de Patricio Rey y sus Redonditos de Ricota: Susanita
Conexión · Inscripción
Letras y Acordes
Pantalla Completa
Imprimir
Versión Texto
Añadir Favorito
Otras Versiones

Mostrar Diagramas
Desfile Automático
Formato del Texto


Susanita(BAJ)

Patricio Rey y sus Redonditos de Ricota

calidad:
redo0842
AUTOR: Solari-Beilinson
ALBUM: Lobo Suelto, Cordero Atado
Enviado por Sebastián
Intro
G|-----------------------------------|x4
D|--------------------66--9---66--9--|
A|---44--7---44--7--77--77-7-7--77-7-|
E|-55--55-5-5--55-5------------------|

Verso
G|-----|----------|----------------------------------------------------------------------------|
D|-----|----------|---44--7---44--7-------------------4--7---4--7----4--7----------------------|
A|-----|-------44-|-55--55-5-5--55----44--7---44--7-55-55-5-5-55-5-55-55-5---4--7----4--7--(7)-|
E|-(5)-|-555-77---|-----------------55--55-5-5--55-------------------------55-55-5-55-55-5-----|

Puente
G|----------------------------------|x2
D|-------------------66--9---66--9--|
A|---44--7--44--7--77--77-7-7--77-7-|
E|-55--55-55--55-5------------------|

Verso
G|-----|----------|----------------------------------------------------------------------------|
D|-----|----------|---44--7---44--7-------------------4--7---4--7----4--7----------------------|
A|-----|-------44-|-55--55-5-5--55----44--7---44--7-55-55-5-5-55-5-55-55-5---4--7----4--7--(7)-|
E|-(5)-|-555-77---|-----------------55--55-5-5--55-------------------------55-55-5-55-55-5-----|

Solo de Guitarra
G|----------------------------------|x2
D|-------------------66--9---66--9--|
A|---44--7--44--7--77--77-7-7--77-7-|
E|-55--55-55--55-5------------------|

Solo de Saxo
G|-----------------------------------|x2
D|---44--7---44--7-------------------|
A|-55--55-5-5--55-5---44--7---44--7--|
E|------------------55--55-5-5--55-5-|

Verso
G|-----|----------|----------------------------------------------------------------------------|
D|-----|----------|---44--7---44--7-------------------4--7---4--7----4--7----------------------|
A|-----|-------44-|-55--55-5-5--55----44--7---44--7-55-55-5-5-55-5-55-55-5---4--7----4--7--(7)-|
E|-(5)-|-555-77---|-----------------55--55-5-5--55-------------------------55-55-5-55-55-5-----|

Puente
G|----------------------------------|x4
D|-------------------66--9---66--9--|
A|---44--7--44--7--77--77-7-7--77-7-|
E|-55--55-55--55-5------------------|

Solo de Saxo Final
G|-----------------|x3 |-----------------|
D|---4--7----------|   |-----------------|
A|-55-55-5---4--7--|   |-(5)-(5)-(5)-----|
E|---------55-55-5-|   |-------------(5)-|

Escuchá la canción para saber el ritmo
Este fichero es trabajo propio de su transcriptor y representa su interpretación personal de la canción. El material contenido en esta página es
para exclusivo uso privado, por lo que se prohibe su reproducción o retransmisión, así como su uso para fines comerciales.

© LaCuerda.net · Aviso Legal · Privacidad