Tablatura para Bajo de Patricio Rey y sus Redonditos de Ricota: Ñan Fi Frufi Fali Fru
Conexión · Inscripción
Letras y Acordes
Pantalla Completa
Imprimir
Versión Texto
Añadir Favorito
Otras Versiones

Mostrar Diagramas
Desfile Automático
Formato del Texto


Ñan Fi Frufi Fali Fru(BAJ)

Patricio Rey y sus Redonditos de Ricota

calidad:
redo0993
AUTOR: Patricio Rey y sus Redonditos de Ricota  corregir
ALBUM: desconocido
Enviado por mariano
intro  X1
|----------------|
|----------------|
|--2---2---2-2---|
|----------------|

Verso  X2
|----------------|----------------|----------------|----------------|
|----------------|----------------|----------------|----------------|
|--------2-2-4-2-|--------2-2-4-2-|--------2-2-4-4-|--------2-2-4-4-|
|0-0-4-4---------|0-0-4-4---------|0-0-4-4---------|0-0-4-4---------|

|----------------|----------------|----------------|----------------|
|------------4---|------------4---|----------------|----------------|
|----4-4-7-7---7-|----4-4-7-7---7-|--------2-2-4-2-|--------2-2-4-2-|
|5-5-------------|5-5-------------|0-0-4-4---------|0-0-4-4---------|

|----------------|----------------|----------------|----------------|
|------------6---|------------4---|----------------|----------------|
|----6---9-----9-|----4---7-----7-|--------2-2-4-2-|--2-2-2-2-2-2-2-|
|7-7---7---7-----|5-5---5---5-----|0-0-4-4---------|----------------|

Estribillo X1
|----------------|----------------|----------------|----------------|
|------------4---|------------4---|----------------|----------------|
|----4---7-----7-|----4---7-----7-|--------2---4-2-|--------2---4-2-|
|5-5---5---5-----|5-5---5---5-----|0-0-4-0---0-----|0-0-4-0---0-----|

|----------------|----------------|----------------|----------------|
|------------4---|------------4---|----------------|----------------|
|----4---7-----7-|----4---7-----7-|--------2---4-2-|--------2---4-2-|
|5-5---5---5-----|5-5---5---5-----|0-0-4-0---0-----|0-0-4-0---0-----|

|----------------|----------------|----------------|----------------|
|------------6---|------------4---|----------------|----------------|
|----6---9-----9-|----4---7-----7-|--------2---4-2-|--2-2-2-2-2-2-2-|
|7-7---7---7-----|5-5---5---5-----|0-0-4-0---0-----|----------------|

solo + verso X2
|----------------|----------------|----------------|----------------|
|----------------|----------------|----------------|----------------|
|----------------|----------------|----------------|----------------|
|0---------------|----------------|0---------------|0-0-2-0-3-0-4-0-|

|----------------|----------------|----------------|----------------|
|------------4---|------------4---|----------------|----------------|
|----4-4-7-7---7-|----4-4-7-7---7-|--------2-2-4-2-|--------2-2-4-2-|
|5-5-------------|5-5-------------|0-0-4-4---------|0-0-4-4---------|

|----------------|----------------|----------------|----------------|
|------------6---|------------4---|----------------|----------------|
|----6---9-----9-|----4---7-----7-|--------2-2-4-2-|--2-2-2-2-2-2-2-|
|7-7---7---7-----|5-5---5---5-----|0-0-4-4---------|----------------|

Verso  X1
|----------------|----------------|----------------|----------------|
|----------------|----------------|----------------|----------------|
|--------2-2-4-2-|--------2-2-4-2-|--------2-2-4-4-|--------2-2-4-4-|
|0-0-4-4---------|0-0-4-4---------|0-0-4-4---------|0-0-4-4---------|

|----------------|----------------|----------------|----------------|
|------------4---|------------4---|----------------|----------------|
|----4-4-7-7---7-|----4-4-7-7---7-|--------2-2-4-2-|--------2-2-4-2-|
|5-5-------------|5-5-------------|0-0-4-4---------|0-0-4-4---------|

|----------------|----------------|----------------|----------------|
|------------6---|------------4---|----------------|----------------|
|----6---9-----9-|----4---7-----7-|--------2-2-4-2-|--2-2-2-2-2-2-2-|
|7-7---7---7-----|5-5---5---5-----|0-0-4-4---------|----------------|

Estribillo + final X1
|----------------|----------------|----------------|----------------|
|------------4---|------------4---|----------------|----------------|
|----4---7-----7-|----4---7-----7-|--------2---4-2-|--------2---4-2-|
|5-5---5---5-----|5-5---5---5-----|0-0-4-0---0-----|0-0-4-0---0-----|

|----------------|----------------|----------------|----------------|
|------------4---|------------4---|----------------|----------------|
|----4---7-----7-|----4---7-----7-|--------2---4-2-|--------2---4-2-|
|5-5---5---5-----|5-5---5---5-----|0-0-4-0---0-----|0-0-4-0---0-----|

|----------------|----------------|----------------|----------------|
|------------6---|------------4---|----------------|----------------|
|----6---9-----9-|----4---7-----7-|--------2---4-2-|--------2---4-2-|
|7-7---7---7-----|5-5---5---5-----|0-0-4-0---0-----|0-0-4-0---0-----|

|----------------|----------------|----------------|----------------|
|------------6---|------------4---|----------------|----------------|
|----6---9-----9-|----4---7-----7-|--------2---4-2-|--------2---4-2-|
|7-7---7---7-----|5-5---5---5-----|0-0-4-0---0-----|0-0-4-0---0-----|

|----------------|----------------|----------------|----------------
|------------6---|----------------|----------------|----------------
|----6---9-----9-|----------------|----------------|--5-6-7---------
|7-7---7---7-----|5---------------|0-0-4-4-5-5-6-6-|7-------------0-
                                                              
dejar sonando la ultima nota
Este fichero es trabajo propio de su transcriptor y representa su interpretación personal de la canción. El material contenido en esta página es
para exclusivo uso privado, por lo que se prohibe su reproducción o retransmisión, así como su uso para fines comerciales.

© LaCuerda.net · Aviso Legal · Privacidad