Tablatura para Bajo de Patricio Rey y sus Redonditos de Ricota: Fusilados por la cruz Roja
Conexión · Inscripción
Letras y Acordes
Pantalla Completa
Imprimir
Versión Texto
Añadir Favorito
Otras Versiones

Mostrar Diagramas
Desfile Automático
Formato del Texto


Fusilados por la cruz Roja(BAJ)

Patricio Rey y sus Redonditos de Ricota

calidad:
redo1183
AUTOR: Patricio Rey y sus Redonditos de Ricota  corregir
ALBUM: La mosca y la sopa
Enviado por pablo
Riff 1 intro (Am)  x 4

G-------------4^5-----------------------------|
D-----------------5^7-------------------------|
A---------6^7---------6^7---------------------|
E-4^5-7^8-----------------4^5-7^8-4^5---------|


Riff 2 Estrofa (Am)  x 2
Ay, ay...
G----------------------------------|
D----------------5^7---------7-----|
A-----6^7----6^7---------6^7-------|
E-4^5-----5----------4^5-----------|

G-------------4^5-----------------------------|
D-----------------5^7-------------------------|
A---------6^7---------6^7---------------------|
E-4^5-7^8-----------------4^5-7^8-4^5---------|



Pero estás hundido en tu... (sin bajo)


1er solo
        F          C            Bb  F         Am
G------------------------------------------------
D--------3h2---2-3------2-3-2---------------------
A-(3h1)------3-----3?2h3------3-1---------3-----
E------1----------3---------------3-1?3h5---3-5-

        F       C         Bb       G
G---------------------------------------------------------------|
D-----------------3-3--2---------2^2----------------------------|
A-7-5-3-------3---------3-----3------3--1---1^1-1---------------|
E---------3--1-------------------------------1---------3-3-3-3--|

Riff 1 intro  x2

Riff 2 Estrofa:  ? vas, ay?.  x 2

Pero estás hundido?   (sin bajo)

Riff  3  s/G7
                      Te encanará un robocop?.

G-----------------------------/----------------------|
D---5-3-----------3-5-3?5^3--/---5-3---------3-5-3---|
A----------0h1h2------------/--------0h1h2-----------|   x 2
E---------------------------/------------------------|

Riff 1 intro   x2
Riff 2 estrofa x2
En esta vieja?(sin bajo)
2º solo (saxo)  igual solo 1

Final     g---------------------|
          d--------------6-7----|
          a---------------------|
          e?4-5--7-8------------|
Este fichero es trabajo propio de su transcriptor y representa su interpretación personal de la canción. El material contenido en esta página es
para exclusivo uso privado, por lo que se prohibe su reproducción o retransmisión, así como su uso para fines comerciales.

© LaCuerda.net · Aviso Legal · Privacidad