Tablatura para Guitarra de Patricio Rey y sus Redonditos de Ricota: Fusilados por la cruz Roja
Conexión · Inscripción
Letras y Acordes
Pantalla Completa
Imprimir
Versión Texto
Añadir Favorito
Otras Versiones

Mostrar Diagramas
Desfile Automático
Manipular Acordes
Formato del Texto


Fusilados por la cruz Roja(TAB)

Patricio Rey y sus Redonditos de Ricota

calidad:
redo1182
AUTOR: Patricio Rey y sus Redonditos de Ricota  corregir
ALBUM: La mosca y la sopa
Enviado por Dario
Referencias: _ Ligado
             ~ Vibrato
             ^ Estirar

Solo:

E1|----------------------------------------------------------------------
B2|----------------------------------------------------------------------
G3|------------------------------------5-7^-7-5-7-5----------------------
D4|----------------7~-7-5---5-7----5-7-------------7-5-------------------
A5|----------5-7-8--------8-----5_7--------------------7-5-3---5-3-------
E6|0-3-5-7-8-------------------------------------------------5-----5-3-5-

E1|-------------------------15---15---15---15----------------------------
B2|------------8_10~--13-15^--15^--15^--15^--15^_13_15-13-------------13-
G3|--------5_9------14----------------------------------------14-12-14---
D4|----5-7---------------------------------------------------------------
A5|3_7-------------------------------------------------------------------
E6|----------------------------------------------------------------------

E1|-------------------------------------------
B2|--------13-12------------------------------
G3|14-12-14-----14-12-------------------------
D4|------------------14-12--------------------
A5|-----------------------15-15-14-12-10-12~--
E6|-------------------------------------------
Este fichero es trabajo propio de su transcriptor y representa su interpretación personal de la canción. El material contenido en esta página es
para exclusivo uso privado, por lo que se prohibe su reproducción o retransmisión, así como su uso para fines comerciales.

© LaCuerda.net · Aviso Legal · Privacidad