Acordes de Guitarra » P »Pappo » Una casa con diez pinos (Tab)

Una casa con diez pinos
Pappo

Letras, Notas, Punteos, Tablaturas y Acordes de Guitarra (Tabs & Chords)

  • Letra y Acordes
       intro: [  Em  G ] varias veces
    
         A7                       Em
             Una casa con diez pinos
         A7                       Em
             hacia el sur hay un lugar
         Cm7                    Gm7
             ahora mismo voy alla
         Cm7                      G 
            porque ya no aguanto mas
            Db7     Db7   Db7   Db7
            no a - guan - to - mas
            Db7     Db7   Db7   D7
            no a - guan - to - mas
     (silencio)               Em
             vivir en la ciudad
          G                   Em
            solo humo y soledad
          G                   Em
            nada mas que respirar
    
  • Tablatura
    Acordes:    E A G D B E
          SolM: 3 2 0 0 3 3
          Mim:  0 2 2 0 0 0
          LaM:  x 0 2 2 2 0
          Dom:  x 3 5 5 4 3
          Solm: 3 5 5 3 3 3
          Do#5: x 4 6 6 x x
          ReM5: x 5 7 7 7 5
          DoM:  x 3 2 0 1 0
          ReM:  x x 0 2 3 2
    
    
    Intro: SolM - Mim (x2)
    
    LA                MIm
    Una casa con 10 pinos
    LA                    MIm
    Hacia el sur hay un lugar
    DOm                SOLm
    Ahora mismo voy alla
    
  • Tablatura
    Musicos, les paso el solo completo de
    "Una casa con 10 pinos de Pappo"
    Lo saque de oido, si quiere contribur
    para arreglarlo son bienvenidos
    Saludos y mucho blues y rock and roll!!
    
    
    -12~-12/14------------14---------------------------------------------------
    --------------------------17--14-------------------------------------------
    ------------16(18)----------------16(18)16h14------------------------------
    ------------------------------------------------16----14h16----14~---------
    ---------------------------------------------------------------------------
    ---------------------------------------------------------------------------
    
    
    
    ------------------------------17-------------------------------------------
    ---------------------------------17----------------------------------------
    -16(18)16---14---16(18)(18)----------(18)16-----14-----16(18)16------------
    ---------------------------------------------------------------------------
    ------------------------------------------------------
  • Tab p/Bajo
    G|-----------------------------------------|
    D|-----------------------------------------|
    A|--------3-5------5-3---------------3-5-7-|
    E|-3----6-----0--------6--3----3-3-6-------|
    
    “Una casa con 10 pinos…   …Hacia el sur hay un lugar”
    G|----------------------------------------------------------------------
    D|-------------------------------------------------------5--------------
    A|----------57----7-7-775-------------57-----3----3-3-3h5-------------5-
    E|-5---55-7---0----------7-5----055-7---0-----------------3----3303033--
    
         “Por que ya no…       …no aguanto mas”
    G|-------------------------------------------|
    D|------------5------------------------------|
    A|3----3-3------------------4-4-4-4--4-4-4-5-|
    E|--------------3----330303------------------|
    
    “Vivir en la ciudad, solo humo y soledad”                    “Nunca mas
    G|------------------------------------------------------------------------
    D|------------------------------------------------------------------------
    A|----
  • +
    ¡Colabora con nosotros!
    Envíanos tu versión de esta canción

Letra de Una casa con diez pinos
Una casa con diez pinos
hacia el sur hay un lugar
ahora mismo voy alla
porque ya no aguanto mas
no a - guan - to - mas
no a - guan - to - mas
vivir en la ciudad
nada mas que respirar
nuca mas , nunca mas
en la ciudad
un jardin y mis amigos
no se pueden comparar
con el ruido infernal
de esta guerra de ambicion
para lograr
o conseguir
prestigio en la ciudad
dinero y nada mas
sin tiempo de observar
un jardin, bajo el sol
antes de morir
no hay preguntas que hacer
ni una simple reflexion
oxidarse o resistir
para ganar
o empatar
prefiero sonreir
mirar dentro de mi
fumar odibujar
para que complicar


... complicar
x ooo
\______/
||||||
||o|||
|o||||
||||||
quino : quinox@uol.com.ar
http://usuarios.arnet.com.ar/quino1/index.html

Videos de Una casa con diez pinos
[ver más videos]

[ver todas las canciones]


© LaCuerda.net · Aviso Legal · Privacidad