Acordes de Guitarra » P »los Panchos » No trates de mentir (Tab)

No trates de mentir
los Panchos

Letras, Acordes y Tabs para Guitarra, Bajo y Ukulele

  •                  D
    No trates de mentir
                       B7
    diciendo que es a mí
                    Em
    quien amas con pasión,
                     A7
    no trates de mentir
    
    que nunca enagañarás
                   D
    tu propio corazón.
    
                       B7
    Si tienes duda de volver
              Em
    debes pensarlo bien,
             A7
    así después no pasarás
               D
    
  •                 D                      B7
    No trates de mentir, diciendo que es a mí, quien amas
    
          Em   A7
    con pasión,
    
                    Em                   A7
    no trates de mentir, que nunca engañarás tu propio
    
        D    Bdim Em A7
    corazón;
    
    
              D          B7            Em
    Si tienes duda de volver, debes pensarlo bien,
    
           A7                        D           F#m Fm Em
    así después no pasarás, por otro cruel desdén.
    
    
    
  • ☺☺☺☺
    Afinación :Requinto con capo cuarto Traste C# F# B E G# C# 	
    
    |0-5-7-8-7-5-0-------------|------2-5-3-2-0-------|--0-----0-5-3-2-0---------------|
    |--------------1-0---0-1-0-|1-2-3-----------3-1-0-|0---3-2-----------3-1-----------|
    |------------------2-------|----------------------|----------------------2---------|
    |--------------------------|----------------------|------------------------4-0-2-0-|
    |--------------------------|----------------------|--------------------------------|
    |--------------------------|----------------------|--------------------------------|
                                                                               q s s s  
    
    |----------------|0-5-7-8-7-5-0-------------|------2-5-3-2-0-------|
    |----------------|--------------1-0---0-1-0-|1-2-3-----------3-1-0-|
    |----------------|------------------2-------|----------------------|
    |----------------|--------------------------|----------------------|
    |2-1-0-2-2-3-4-5-|---
  • +
    ¡Colabora con nosotros!
    Envíanos tu versión de esta canción

Letra de No trates de mentir
No trates de mentir
diciendo que es a mí
quien amas con pasión,
no trates de mentir
que nunca enagañarás
tu propio corazón.
Si tienes duda de volver
debes pensarlo bien,
así después no pasarás
por otro cruel desdén.
No trates de engañar
y por temor a herir
ocultes tu maldad,
si bien no he de reír
tampoco he de llorar,
no trates de mentir.




[No trates de mentir chords][No trates de mentir cifra]
© LaCuerda.net · aviso legal · privacidad · es · en · pt · contacto