Acordes de Guitarra » P »los Panchos » Moliendo cafe (Tab)

Moliendo cafe
los Panchos

Letras, Acordes y Tabs para Guitarra, Bajo y Ukulele

  •  Bm
    Cuando en la tarde el anguinese renace en la sombra
                                          MI
    Y el aquel tu los cafetales vuelven a sentir
                          Bm
    Resito mi cancion de amor de la vieja molienda
     MI                                     LA
    Que en el retargo de la noche parece jemir.
    
     RE                                           SI-m
    Cuando en la tarde el anguile se renace en la sombara
                           MI               LA
    Y el aquel tu los cafetales vuelven a sentir
                          RE                SI-m
    Resito mi cancion de amor de la vieja molienda
     MI                                     LA
    Que en el retargo de la noche parece jemir.
    
        LA                         SI-m
    *** Una pena de amor, y de triztesa
    
  • Para tocar este requinto es nesesario que el 'capo' se
    coloque en el noveno (9) traste.
    Este requinto es un poco fasil, solo tienen que escuchar
    la cancion para seguir el tiempo y como hacer las (harm ons)
    (si por casualidad no entienden mandenme un mail)
    
    1----------0--11x9------10--------------
    2------12-----------10-------12---------
    3--11-----------------------------------
    4---------------------------------------
    5---------------------------------------
    6---------------------------------------
    
    1----------0--11x9------13--13----------
    2------12-----------12------------------
    3--11-----------------------------------
    4---------------------------------------
    5---------------------------------------
    6---------------------------------------
    
    1----------0--13--13x5--14--13--13--12--
    2------12-------------------------------
    3--11-----------------------------------
    4---------------------------------------
    5---------------------------------------
    6------------------
  • +
    ¡Colabora con nosotros!
    Envíanos tu versión de esta canción

Letra de Moliendo cafe
Cuando en la tarde el anguinese renace en la sombra
Y el aquel tu los cafetales vuelven a sentir
Resito mi cancion de amor de la vieja molienda
Que en el retargo de la noche parece jemir.
Cuando en la tarde el anguile se renace en la sombara
Y el aquel tu los cafetales vuelven a sentir
Resito mi cancion de amor de la vieja molienda
Que en el retargo de la noche parece jemir.
*** Una pena de amor, y de triztesa
Lleva el santo manuel en su amargura
Pasa encantado la noche moliendo cafe.
(requinto)...
*** Una Pena de amor, y de triztesa
Lleva el santo manuel en su amargura
Pasa encantado la noche moliendo cafe.
(requinto)...




[Moliendo cafe chords][Moliendo cafe cifra]
© LaCuerda.net · aviso legal · privacidad · es · en · pt · contacto