Tablatura para Guitarra de los Panchos: Moliendo cafe
Conexión · Inscripción
Letras y Acordes
Pantalla Completa
Imprimir
Versión Texto
Añadir Favorito
Otras Versiones

Mostrar Diagramas
Desfile Automático
Manipular Acordes
Formato del Texto


Moliendo cafe(TAB)

los Panchos

calidad:
pnch0631
AUTOR: José Manzo
ALBUM: Leyendas, Vol. 2 (1995)
Enviado por Anthony
Para tocar este requinto es nesesario que el 'capo' se
coloque en el noveno (9) traste.
Este requinto es un poco fasil, solo tienen que escuchar
la cancion para seguir el tiempo y como hacer las (harm ons)
(si por casualidad no entienden mandenme un mail)

1----------0--11x9------10--------------
2------12-----------10-------12---------
3--11-----------------------------------
4---------------------------------------
5---------------------------------------
6---------------------------------------

1----------0--11x9------13--13----------
2------12-----------12------------------
3--11-----------------------------------
4---------------------------------------
5---------------------------------------
6---------------------------------------

1----------0--13--13x5--14--13--13--12--
2------12-------------------------------
3--11-----------------------------------
4---------------------------------------
5---------------------------------------
6---------------------------------------

1----------0--11x9--13--11--0-----------
2------12----------------------13--13---
3--11-----------------------------------
4---------------------------------------
5---------------------------------------
6---------------------------------------

[11x9] significa que se presiona en el decimo 
primero (11) traste y se toca nueve veces.
esto es un poco rapido y el dedo que se presiona la
cuerda se le vanta rapidamente pero no se deja que
la cuerda se toque en (0).

RECUERDEN, MANDENME UN MAIL SI NO ENTIENDEN ALGO.
Este fichero es trabajo propio de su transcriptor y representa su interpretación personal de la canción. El material contenido en esta página es
para exclusivo uso privado, por lo que se prohibe su reproducción o retransmisión, así como su uso para fines comerciales.

© LaCuerda.net · Aviso Legal · Privacidad