Acordes de Guitarra » P »los Panchos » Caminemos (Tab)

Caminemos
los Panchos

Letras, Acordes y Tabs para Guitarra, Bajo y Ukulele

  • INTRO: SOLm REm LA7 REm (x 2)                ORIGINAL re#m (CEJILLA 1)
    
    
    REm                           LA7
    No, ya no debo pensar que te amé;
    SOLm              LA7       REm
    es preferible olvidar que sufrir.
    RE7                RE#7    RE7
    No, no concibo que todo acabó,
                       RE#7     RE7
    que este sueño de amor terminó,
                        SOLm
    que la vida nos separó sin querer.
        REm                 MI7-LA7  REm
    Caminemos tal vez nos veremos después.
    
    INTRO (x 2)
    
    LA7                           REm
    Esta es la ruta que estaba marcada,
    
  •  Em
    No, ya no debo
                    B7
    pensar que te amé;
     Am
    es preferible
                    Em
    olvidar que sufrir.
    
     E7
    No, no concibo
    
    que todo acabó,
    
    que este sueño
    
    de amor terminó,
                         Am
    que la vida nos separó
    
    
  • CAMINEMOS 
    
    
    
    E ----2-2-2-2---0----------0-----------------------
    B --------------------3--1-------3--1--0--3--1--0--
    G -------------------------------------------------
    D -------------------------------------------------
    A -------------------------------------------------
    E -------------------------------------------------
    
    
    
    
    E ------------------------------0---2--3-----------
    B ---------------------------0---------------------
    G ---2--0----------------0-------------------------
    D ------------1--2--4------------------------------
    A -------------------------------------------------
    E -------------------------------------------------
    
    
    
    
    E ---------------0---------------------------------
    B ------------0-----4-3-2-1-0----------------------
    G ---------0----------------------2--0-------------
    D -----2----------------------------------4--2--1--
    A -------------------------------------------------
    E -------------------------------------------------
    
    
    
    
    
    E 
  • E----------------------------------------------------------
    A----------------------------------------------------------
    D-------------------------------------4-1-2-4-----------2--
    G---------------------------2-----2-0---------0-----------0
    B-----------3-1---3-1-3-1-0---1-0---------------0----------
    e-2-2-2-2-0-----0---------------------------------0-2-3----
    
    
    -------------------------------3-2-3-----------------------
    -------------------------3-2-0-------1-2-------------------
    -------------------4-2-1-----------------1-2-4-------------
    ---------------2-0-----------------------------------------
    -0---4-3-2-1-0----------------------------------0-0--------
    ---0------------------------------------------------0-2-2-2
    
    
    -----------------------------------------------------------
    -----------------------------------------------------------
    ---------------------------------4-1-4-2-------------2-----
    -----------------------------2-0---------0-------------0---
    -----------3-3-3-3-1-1-1-1-0--------
  • +
    ¡Colabora con nosotros!
    Envíanos tu versión de esta canción

Letra de Caminemos
No, ya no debo
pensar que te amé;
es preferible
olvidar que sufrir.
No, no concibo
que todo acabó,
que este sueño
de amor terminó,
que la vida nos separó
sin querer;
caminemos tal vez
nos vere - mos después.
Esta es la ruta
que estaba marcada,
sigo insistiendo en tu amor
que se perdió en la nada.
Vivo caminando
sin saber dónde llegar;
tal vez caminando
la vida nos vuelva a juntar.
No, no, no no, ya no debo
pensar que te amé,
es preferible
olvidar que sufrir.
No, no concibo
que todo acabó,
que este sueño
de amor terminó,
que la vida nos separó
sin querer;
caminemos tal vez
nos vere - mos después.




[Caminemos chords][Caminemos cifra]
© LaCuerda.net · aviso legal · privacidad · es · en · pt · contacto