Tablatura para Guitarra de los Panchos: Caminemos
Conexión · Inscripción
Letras y Acordes
Pantalla Completa
Imprimir
Versión Texto
Añadir Favorito
Otras Versiones

Mostrar Diagramas
Desfile Automático
Manipular Acordes
Formato del Texto


Caminemos(TAB)

los Panchos

calidad:
pnch0074
AUTOR: Alfredo Gil, Heriberto Martínez
ALBUM: Asi Cante Con los Panchos, Vol. 1
Enviado por jose
E----------------------------------------------------------
A----------------------------------------------------------
D-------------------------------------4-1-2-4-----------2--
G---------------------------2-----2-0---------0-----------0
B-----------3-1---3-1-3-1-0---1-0---------------0----------
e-2-2-2-2-0-----0---------------------------------0-2-3----


-------------------------------3-2-3-----------------------
-------------------------3-2-0-------1-2-------------------
-------------------4-2-1-----------------1-2-4-------------
---------------2-0-----------------------------------------
-0---4-3-2-1-0----------------------------------0-0--------
---0------------------------------------------------0-2-2-2


-----------------------------------------------------------
-----------------------------------------------------------
---------------------------------4-1-4-2-------------2-----
-----------------------------2-0---------0-------------0---
-----------3-3-3-3-1-1-1-1-0----------------0------------0-
-2-0-0-0-0------------------------------------0-2-3--------


----------------------------3-2-0-
----------------------3-2-0-------
----------------4-2-1-------------
------------2-0-------------------
--4-3-2-1-0-----------------------
0---------------------------------
Este fichero es trabajo propio de su transcriptor y representa su interpretación personal de la canción. El material contenido en esta página es
para exclusivo uso privado, por lo que se prohibe su reproducción o retransmisión, así como su uso para fines comerciales.

© LaCuerda.net · Aviso Legal · Privacidad