Acordes de Guitarra » N »La Nueva Luna » Y ahora te vas (Tab)

Y ahora te vas
La Nueva Luna

Letras, Acordes y Tabs para Guitarra, Bajo y Ukulele

  •  LA         RE    MI         LA 
    Yo quise darte todo, todo de mi vida
                   RE                  MI 
    saque de mis adentros lo que ahi crecia
    MI7                              LA 
    una obsesion inmensa por hacerte mia
    MI7                              LA 
    una voz en mi pecho que no me mentia
                     RE                    LA 
    Pero las cosas buenas siempre cuestan tanto
                     RE                    MI 
    fue por demas luchar contra todo tu encanto
    MI7                                     LA 
    y yo arriesgue contigo hasta la ultima gota
    MI7                                     LA 
    del llanto que hoy refleja mi triste derrota
                    
    CORO
               LA 
    Y ahora te vas
    
  • aqui va la introduccion
    
    
    ---5--5--5--5-4-4---------5----------------------------------
    ---5--------------7-7-5-7---7-5-5---3-5-3-2--0---------------
    ---6-------------------------------------------2-1-2---------  
    -------------------------------------------------------------       
    -------------------------------------------------------------
    -------------------------------------------------------------
    
    
    
    ---5--5--5--5-4-4---------5----------------------------------
    ---5--------------7-7-5-7---7-5-5---4p5-5-5---4p5-5-5--------
    ---6---------------------------------------------------------  
    -------------------------------------------------------------       
    -------------------------------------------------------------
    -------------------------------------------------------------
    
    
    
    ----------------4-5-4---5-4------------------10/12-12-12-12-11-10-
    ----------------------7-----7-7--------------7-/9--9--9--9--8--7---
    ------------6-7-----------------6h4-4--------7-/
  • aqui esta la otra parte de:
    y ahora te vas
    
    
    --------------------------------------4---4-------7--5---4-------------
    --------5-6-7-5-6-7-5-6-7-----------5---5---7-7/9--7---5---------------
    -----6-----------------------------------------------------------------
    --7--------------------------------------------------------------------
    -----------------------------------------------------------------------
    -----------------------------------------------------------------------
    
    
    -----4-7-9-7-5-9-7-5-0--------
    ---5--------------------------
    -6----------------------------
    ------------------------------
    ------------------------------
    ------------------------------
    
    
    -5-4-2-4-2-0---0-----
    -------------3---2---
    ---------------------
    ---------------------
    ---------------------
    ---------------------
    
    --------------------------------------4---4-------7--5---4-------------
    --------5-6-7-5-6-7-5-6-7-----------5---5---7-7/9--7---5---------------
    -----6---------------------
  • bueno gente este punteo esta perfecto..primero practiquenlo todo!!!
    
    
    
    1:5-5-5-5-4-4/5-2-2-2-5-2----------------------------
    2:5----------------5-----5-5---4-5-4-2--2------------
    3:6--------------------------------------4-0-2-------
    4:7--------------------------------------------------
    
    
    1:5-5-5-5-4-4/5-2-2-2-5-2----------------------------
    2:5----------------5-----5-5---4/5-5-5-4/5-5-5-------
    3:6--------------------------------------------------
    4:7--------------------------------------------------
    
    
    
    1:------2-4-5-4-2-5-4-2-2/0-----------
    2:-----2-------------------2----------
    3:----2---------------------4---------
    4:-2-4--------------------------------
    5:4-----------------------------------
    
    
    
    
    1:12---12---12---12--12---10------10--10-9-7-10-9-7-10-----
    2:9----9----9----9---9----7-----10-------------------------
    3:9----9----9----9---9----7---11---------------------------
    4:----------------------------12---------------------------
    
    
    
    
    1:10--11--12--12--12---------9-8-7---5---5-4-2-4-
  • 1|-5-5-5-4-4h5p4--------4-------------------------
    2|-5-------------7-7p5h7-7-5-5~--5----------------
    3|-6----------------------------7-7p6-------------
    4|-7----------------------------------9p7p6h7-----
    5|------------------------------------------------
    6|------------------------------------------------
    
    1|-5-5-5-4-4h5p4--------4-------------------------
    2|-5-------------7-7p5h7-7-5-5~--4p5-5-5--4p5-5-5~
    3|-6----------------------------------------------
    4|-7----------------------------------------------
    5|------------------------------------------------
    6|------------------------------------------------
    
    1|---------2-4-5-4-2-5-4-2-4p2h4------------------
    2|--------2---------------------2-----------------
    3|-------2-----------------------4~---------------
    4|---2-4------------------------------------------
    5|-4----------------------------------------------
    6|------------------------------------------------
    
                            [      *         ]
    1|-10/12-12-12-12-11-10-7-9-10-9-7-1
  • Medio chala la cancion, a todos de aca les creo
    yaaaaaaaaaaaaaaaaaah   (la paz)
    Intro
                x3
    E|------|-5-----|--------|-5-----|-5---5--|
    A|--7-5-|---7---|-7-75-5-|---7---|---7----|
    D|------|-----7-|--------|-----7-|--------|
    G|------|-------|--------|-------|--------|
    
    E|--2---2-|-----7---|-7-----|-------|-------|
    A|----4---|-4/7---7-|---7-5-|-7---5-|-5667--|
    D|--------|---------|-------|-------|-------|
    G|--------|---------|-------|---9---|-------|
    
    E|--7-----|-7---5-|-----|-----5--|
    A|------7-|---7---|-7---|-5-7----|
    D|--------|-------|---7-|--------|
    G|----9---|-------|-----|--------|
    
    Yo quisiera
               x3
    E|------|-5-----|---------|-7-----|-7-------|
    A|--5-7-|---7---|-5-56-67-|-----7-|---7-55--|
    D|------|-----7-|---------|-------|---------|
    G|------|-------|---------|---9---|---------|
    
    La obscecion
    E|----|-7---5-|-----5-|-------|-------|-7---5-|-----|------|
    A|--7-|---7---|-7-----|-5-6-7-|-----7-|---7---|-7---|-5-7--|
    D|----|-------|---7---|-------|-9-----|-------|---
  • +
    ¡Colabora con nosotros!
    Envíanos tu versión de esta canción

Letra de Y ahora te vas
Yo quise darte todo, todo de mi vida
saque de mis adentros lo que ahi crecia
una obsesion inmensa por hacerte mia
una voz en mi pecho que no me mentia
Pero las cosas buenas siempre cuestan tanto
fue por demas luchar contra todo tu encanto
y yo arriesgue contigo hasta la ultima gota
del llanto que hoy refleja mi triste derrota

Y ahora te vas
sabiendo que no pude lograr
en tu alma motivar el amor
que yo por ti sentia
A quien le daras
todo lo que no me diste a mi
quien llorará por ti como yo
algún día
Pero las cosas buenas siempre cuestan tanto
fue por demas luchar contra todo tu encanto
y yo arriesgue contigo hasta la ultima gota
del llanto que hoy refleja mi triste derrota
Y ahora te vas
sabiendo que no pude lograr
en tu alma motivar el amor
que yo por ti sentia
A quien le daras
todo lo que no me diste a mi
quien llorará por ti como yo
algún día
Pedidos a miguel_mayta@hotmail.com




[Y ahora te vas chords][Y ahora te vas cifra]
© LaCuerda.net · aviso legal · privacidad · es · en · pt · contacto