Tablatura para Bajo de La Nueva Luna: Y ahora te vas
Conexión · Inscripción
Letras y Acordes
Pantalla Completa
Imprimir
Versión Texto
Añadir Favorito
Otras Versiones

Mostrar Diagramas
Desfile Automático
Formato del Texto


Y ahora te vas(BAJ)

La Nueva Luna

calidad:
nlun0344
AUTOR: Marco Antonio Solís
ALBUM: Humildad y Talento (2001)
Enviado por mauricio
Medio chala la cancion, a todos de aca les creo
yaaaaaaaaaaaaaaaaaah   (la paz)
Intro
            x3
E|------|-5-----|--------|-5-----|-5---5--|
A|--7-5-|---7---|-7-75-5-|---7---|---7----|
D|------|-----7-|--------|-----7-|--------|
G|------|-------|--------|-------|--------|

E|--2---2-|-----7---|-7-----|-------|-------|
A|----4---|-4/7---7-|---7-5-|-7---5-|-5667--|
D|--------|---------|-------|-------|-------|
G|--------|---------|-------|---9---|-------|

E|--7-----|-7---5-|-----|-----5--|
A|------7-|---7---|-7---|-5-7----|
D|--------|-------|---7-|--------|
G|----9---|-------|-----|--------|

Yo quisiera
           x3
E|------|-5-----|---------|-7-----|-7-------|
A|--5-7-|---7---|-5-56-67-|-----7-|---7-55--|
D|------|-----7-|---------|-------|---------|
G|------|-------|---------|---9---|---------|

La obscecion
E|----|-7---5-|-----5-|-------|-------|-7---5-|-----|------|
A|--7-|---7---|-7-----|-5-6-7-|-----7-|---7---|-7---|-5-7--|
D|----|-------|---7---|-------|-9-----|-------|---7-|------|
G|----|-------|-------|-------|---9---|-------|-----|------|

Pero las cosas buenas
                        x3
E|--5-----|--------|-5-----|-----5---|-------|-7-------|
A|----7---|-5-57-7-|---7---|-5-5---7-|-----7-|---7-55--|
D|------7-|--------|-----7-|---------|-9-----|---------|
G|--------|--------|-------|---------|---9---|---------|

Yo arriesgue contigo
E|----|-7---5-|-----5-|-------|-------|-7---5-|-----|-----5--|
A|--7-|---7---|-7-----|-5-6-7-|-----7-|---7---|-7---|-5-7----|
D|----|-------|---7---|-------|-9-----|-------|---7-|--------|
G|----|-------|-------|-------|---9---|-------|-----|--------|

Y ahora te vas
            x2             x3-
E|----5-|-----5-|-------|-------|--5----|
A|--7---|-7-----|-5-6-7-|-----7-|-5-45--|
D|------|---7---|-------|-9-----|-------|
G|------|-------|-------|---9---|-------|

E|-5---|--------|-7---|-7---5-|-----|-----5--|
A|---5-|----5-7-|---7-|---7---|-7---|-5-7----|
D|-----|-77-----|-----|-------|---7-|--------|
G|-----|--------|-----|-------|-----|--------|

A quien le daras
            x2             x3-
E|----5-|-----5-|-------|-------|------|
A|--7---|-7-----|-5-6-7-|-----7-|------|
D|------|---7---|-------|-9-----|------|
G|------|-------|-------|---9---|-9/7--|

E|---5---|--------|-7---|------5-|-----|-----5--|
A|-5---5-|----5-7-|---7-|----7---|-7---|-5-7----|
D|-------|-77-----|-----|-77-----|---7-|--------|
G|-------|--------|-----|--------|-----|--------|

Medio
     x3                         x2
E|--5-----|-5-------|---7---|-------|---5----|
A|----7---|---5-6-7-|-----7-|-----7-|-5---5--|
D|------7-|---------|-9-----|-9-----|--------|
G|--------|---------|-------|---9---|--------|

E|--5---|--5---|-7---|-7---5-|-----|-----5--|
A|----5-|-5--7-|---7-|---7---|-7---|-5-7----|
D|------|------|-----|-------|---7-|--------|
G|------|------|-----|-------|-----|--------|

Pero las cosas buenas
           x3
E|------|-5-----|---------|-7-----|-7-------|
A|--5-7-|---7---|-5-56-67-|-----7-|---7-55--|
D|------|-----7-|---------|-------|---------|
G|------|-------|---------|---9---|---------|

Yo arriesgue
E|----|-7---5-|-----5-|-------|-------|-7---5-|-----|-----5--|
A|--7-|---7---|-7-----|-5-6-7-|-----7-|---7---|-7---|-5-7----|
D|----|-------|---7---|-------|-9-----|-------|---7-|--------|
G|----|-------|-------|-------|---9---|-------|-----|--------|

Y ahora te vas
            x2             x3-
E|----5-|-----5-|-------|-------|--5----|
A|--7---|-7-----|-5-6-7-|-----7-|-5-45--|
D|------|---7---|-------|-9-----|-------|
G|------|-------|-------|---9---|-------|

E|-5---|--------|-7---|-7---5-|-----|-----5--|
A|---5-|----5-7-|---7-|---7---|-7---|-5-7----|
D|-----|-77-----|-----|-------|---7-|--------|
G|-----|--------|-----|-------|-----|--------|

A quien le daras
            x2             x3-
E|----5-|-----5-|-------|-------|--------|
A|--7---|-7-----|-5-6-7-|-----7-|-0-4-5--|
D|------|---7---|-------|-9-----|--------|
G|------|-------|-------|---9---|--------|

E|--5---|-------|-7---|-----5-|-----|-----5--|
A|----5-|---5-7-|---7-|---7---|-7---|-5-7----|
D|------|-7-----|-----|-7-----|---7-|--------|
G|------|-------|-----|-------|-----|--------|

Intro
            x2
E|------|-5-----|-5-----|--------|-5-----|-5---5--|
A|--7-5-|---7---|---7-5-|-7-75-5-|---7---|---7----|
D|------|-----7-|-------|--------|-----7-|--------|
G|------|-------|-------|--------|-------|--------|

E|--2-----|---7---|-7---|-7-----|-------|-------|
A|----4---|-4---7-|---7-|---7-5-|-7---5-|-5667--|
D|------4-|-------|-----|-------|-------|-------|
G|--------|-------|-----|-------|---9---|-------|

E|--7-----|-7---5-|-----|---------5--|
A|------7-|---7---|-7---|-7-6-5-4----|
D|--------|-------|---7-|------------|
G|----9---|-------|-----|------------|

esta cancion va dedicada a una amiga
que pareciese que le gustara esto
pa ti clau
atte miauri
Este fichero es trabajo propio de su transcriptor y representa su interpretación personal de la canción. El material contenido en esta página es
para exclusivo uso privado, por lo que se prohibe su reproducción o retransmisión, así como su uso para fines comerciales.

© LaCuerda.net · Aviso Legal · Privacidad