Tablatura para Guitarra de La Nueva Luna: Y ahora te vas
Conexión · Inscripción
Letras y Acordes
Pantalla Completa
Imprimir
Versión Texto
Añadir Favorito
Otras Versiones

Mostrar Diagramas
Desfile Automático
Manipular Acordes
Formato del Texto


Y ahora te vas(TAB)

La Nueva Luna

calidad:
nlun0346
AUTOR: Marco Antonio Solís
ALBUM: Humildad y Talento (2001)
Enviado por mauricio
1|-5-5-5-4-4h5p4--------4-------------------------
2|-5-------------7-7p5h7-7-5-5~--5----------------
3|-6----------------------------7-7p6-------------
4|-7----------------------------------9p7p6h7-----
5|------------------------------------------------
6|------------------------------------------------

1|-5-5-5-4-4h5p4--------4-------------------------
2|-5-------------7-7p5h7-7-5-5~--4p5-5-5--4p5-5-5~
3|-6----------------------------------------------
4|-7----------------------------------------------
5|------------------------------------------------
6|------------------------------------------------

1|---------2-4-5-4-2-5-4-2-4p2h4------------------
2|--------2---------------------2-----------------
3|-------2-----------------------4~---------------
4|---2-4------------------------------------------
5|-4----------------------------------------------
6|------------------------------------------------

                        [      *         ]
1|-10/12-12-12-12-11-10-7-9-10-9-7-10-9-7-10-11-11/12-12-----
2|-7/9  -9--9--9--8--7--7-----------------7--8--8/9---9------
3|-7/9  -9--9--9--8--7--7-----------------7--8--8/9---9------
4|-7/9  -9--9--9--8--7--7-----------------7--8--8/9---9------
5|-----------------------------------------------------------
6|-----------------------------------------------------------


esta parte no se tocan las cuerdas con la mano derecha,
solo con la izquierda, como tapping, pero sin tocar las cuerdas con la
derecha, solo con los dedos en la mano izquierda
estirando las cuerdas hacia abajo y soltandolas con fuerza,
que suenen las cuerdas luego de soltar, con los dedos INDICE MAYOR ANULAR
si tienen dudas con eso visiten mi facebook/cobranzayo

quedando, el dedo indice en el traste 7 de la primera cuerda, el dedo mayor
en el traste 9 de la primera cuerda y el dedo anular en el traste 10
de la primera cuerda, el dedo indice (7 de la primera) jamas se levanta
mientras se ejecuta esto
Este fichero es trabajo propio de su transcriptor y representa su interpretación personal de la canción. El material contenido en esta página es
para exclusivo uso privado, por lo que se prohibe su reproducción o retransmisión, así como su uso para fines comerciales.

© LaCuerda.net · Aviso Legal · Privacidad