Tablatura para Guitarra de La Nueva Luna: Y ahora te vas
Conexión · Inscripción
Letras y Acordes
Pantalla Completa
Imprimir
Versión Texto
Añadir Favorito
Otras Versiones

Mostrar Diagramas
Desfile Automático
Manipular Acordes
Formato del Texto


Y ahora te vas(TAB)

La Nueva Luna

calidad:
nlun0341
AUTOR: Marco Antonio Solís
ALBUM: Humildad y Talento (2001)
Enviado por jotinto
aqui va la introduccion


---5--5--5--5-4-4---------5----------------------------------
---5--------------7-7-5-7---7-5-5---3-5-3-2--0---------------
---6-------------------------------------------2-1-2---------  
-------------------------------------------------------------       
-------------------------------------------------------------
-------------------------------------------------------------



---5--5--5--5-4-4---------5----------------------------------
---5--------------7-7-5-7---7-5-5---4p5-5-5---4p5-5-5--------
---6---------------------------------------------------------  
-------------------------------------------------------------       
-------------------------------------------------------------
-------------------------------------------------------------



----------------4-5-4---5-4------------------10/12-12-12-12-11-10-
----------------------7-----7-7--------------7-/9--9--9--9--8--7---
------------6-7-----------------6h4-4--------7-/9--9--9--9--8--7----
------0-4-6-------------------------------------------------------
--0-2------------------------------------------------------------
----------------------------------------------------------------



--10--7-9--10-9-7-10-9-7-10-9-7-10--10/11/12---12-------9----7----7--------5-5----------
--7---------------------------------7-/8-/9--------------------------------------------
--7---------------------------------7-/8-/9--9----8-8/9----7---7----5-5p6-------------
---------------------------------------------------------------------------------------
----------------------------------------------------------------------------------------
-------------------------------------------------------------------------------------




--5-4-2-4-2-0-------------------------------------------------
-+-----------------------------------------------------------------
---------------------------------------------------------------
-----------------------------------------------------------------
-----------------------------------------------------------------
-------------------------------------------------------------------


este es la intro otro dia les paso completa
Este fichero es trabajo propio de su transcriptor y representa su interpretación personal de la canción. El material contenido en esta página es
para exclusivo uso privado, por lo que se prohibe su reproducción o retransmisión, así como su uso para fines comerciales.

© LaCuerda.net · Aviso Legal · Privacidad