Tablatura para Guitarra de La Nueva Luna: Y ahora te vas
Conexión · Inscripción
Letras y Acordes
Pantalla Completa
Imprimir
Versión Texto
Añadir Favorito
Otras Versiones

Mostrar Diagramas
Desfile Automático
Manipular Acordes
Formato del Texto


Y ahora te vas(TAB)

La Nueva Luna

calidad:
nlun0345
AUTOR: Marco Antonio Solís
ALBUM: Humildad y Talento (2001)
Enviado por damian
bueno gente este punteo esta perfecto..primero practiquenlo todo!!!



1:5-5-5-5-4-4/5-2-2-2-5-2----------------------------
2:5----------------5-----5-5---4-5-4-2--2------------
3:6--------------------------------------4-0-2-------
4:7--------------------------------------------------


1:5-5-5-5-4-4/5-2-2-2-5-2----------------------------
2:5----------------5-----5-5---4/5-5-5-4/5-5-5-------
3:6--------------------------------------------------
4:7--------------------------------------------------



1:------2-4-5-4-2-5-4-2-2/0-----------
2:-----2-------------------2----------
3:----2---------------------4---------
4:-2-4--------------------------------
5:4-----------------------------------




1:12---12---12---12--12---10------10--10-9-7-10-9-7-10-----
2:9----9----9----9---9----7-----10-------------------------
3:9----9----9----9---9----7---11---------------------------
4:----------------------------12---------------------------




1:10--11--12--12--12---------9-8-7---5---5-4-2-4-2---------
2:7---8---9---9---9-------------------------------5-4-5-2--
3:7---8---9---9---9-----7-7/9-8-7-6-6----------------------
Este fichero es trabajo propio de su transcriptor y representa su interpretación personal de la canción. El material contenido en esta página es
para exclusivo uso privado, por lo que se prohibe su reproducción o retransmisión, así como su uso para fines comerciales.

© LaCuerda.net · Aviso Legal · Privacidad