Acordes de Guitarra » N »La Nueva Luna » Olvidame (Tab)

Olvidame
La Nueva Luna

Letras, Acordes y Tabs para Guitarra, Bajo y Ukulele

  •    A
    No es que no me gustes ya como mujer
                                   E      
    Ni que tenga el corazón hecho de hielo
    Bm                                 E
    Lo que pasa es que no puedo hacerle infiel
    E                                 A            E
    A quien tanto me ha querido también quiero
    
       A
    El ayer quiero olvidar hazlo también
                                  E
    Todo ha sido una locura hoy no comprendo
    Bm                        E
    No debí jugar así con el amor
    E                              A            E
    No vuelvo a poner las manos en el fuego
    
    
         D            A
    
  • hola amigos de lacuerda.net,este es mi primer
    tema de la nueva luna que saco a oido,por eso
    si ay un problema con la tablatura avisen;
    este es soló el intro otro día les paso el
    tema completo.
    
    1.---------------------------------7s9-7h9h7-5h7h5--
    2.-5-5-5-5-5h7h5-----------------5-------------------
    3.---------------7-6-----------6-----------------------
    4.---------------------------7-------------------------
    5.-----------------------------------------------------
    6.-----------------------------------------------------
    
    1.9-9-9-9-9----10h12h10-9-7-5-5h7h5-4-4h5h4------------
    2.-----------12----------------------------------------
    3.-----------------------------------------------------
    4.-----------------------------------------------------
    5.-----------------------------------------------------
    6.-----------------------------------------------------
    
    1.---7----7-9-9h10h9-9-7-5-5h7h5-4-4h5h4---------------
    2.-------7---------------------------------------------
    3.------7--------------
  • +
    ¡Colabora con nosotros!
    Envíanos tu versión de esta canción

Letra de Olvidame
No es que no me gustes ya como mujer
Ni que tenga el corazón hecho de hielo
Lo que pasa es que no puedo hacerle infiel
A quien tanto me ha querido también quiero
El ayer quiero olvidar hazlo también
Todo ha sido una locura hoy no comprendo
No debí jugar así con el amor
No vuelvo a poner las manos en el fuego
Olvídame, olvídame
Y hagamos de cuenta que todo fue un sueño
Olvídame, olvídame
Y ya no me busques mas Porque no vuelvo




[Olvidame chords][Olvidame cifra]
© LaCuerda.net · aviso legal · privacidad · es · en · pt · contacto
DINAMICO