Tablatura para Guitarra de La Nueva Luna: Y ahora te vas
Conexión · Inscripción
Letras y Acordes
Pantalla Completa
Imprimir
Versión Texto
Añadir Favorito
Otras Versiones

Mostrar Diagramas
Desfile Automático
Manipular Acordes
Formato del Texto


Y ahora te vas(TAB)

La Nueva Luna

calidad:
nlun0343
AUTOR: Marco Antonio Solís
ALBUM: Humildad y Talento (2001)
Enviado por jotinto
aqui esta la otra parte de:
y ahora te vas


--------------------------------------4---4-------7--5---4-------------
--------5-6-7-5-6-7-5-6-7-----------5---5---7-7/9--7---5---------------
-----6-----------------------------------------------------------------
--7--------------------------------------------------------------------
-----------------------------------------------------------------------
-----------------------------------------------------------------------


-----4-7-9-7-5-9-7-5-0--------
---5--------------------------
-6----------------------------
------------------------------
------------------------------
------------------------------


-5-4-2-4-2-0---0-----
-------------3---2---
---------------------
---------------------
---------------------
---------------------

--------------------------------------4---4-------7--5---4-------------
--------5-6-7-5-6-7-5-6-7-----------5---5---7-7/9--7---5---------------
-----6-----------------------------------------------------------------
--7--------------------------------------------------------------------
-----------------------------------------------------------------------
-----------------------------------------------------------------------

-----4-7-9-7-5-9-7-5-0--------
---5--------------------------
-6----------------------------
------------------------------
------------------------------
------------------------------
-----9---7---7---5--------------------
---------------------------------------
-8-9---7---7---6-----------------------
---------------------------------------
---------------------------------------
---------------------------------------
estribillo

------------------------------12-12-12-12-----------4-5-4---------
------5-7-5-------5-7----------9--9--9--9---------5-------5-------
----6-------6---6-----6--------9--9--9--9-------4-----------4-----
--7-----------7---------7-------------------------------------6---
------------------------------------------------------------------
------------------------------------------------------------------



---5-4-2-4-2-0-2-4-5--------------------------------------------------
----------------------------------------------------------------------
----------------------------------------------------------------------
-----------------------------------------------------------------------
-----------------------------------------------------------------------
----------------------------------------------------------------------


--------------------------------------12-12-12-12----------------------
------5-7-5----------5-7---------------9--9--9--9-----------------------
----6-------------6--------------------9--9--9--9-----------------------
--7---------7-7-7---------7-7-7----------------------------------------
------------------------------------------------------------------
------------------------------------------------------------------


-------4-5-4p5h4-------4-5-4p5h4-------4p5h4-----5p4-----5p4----------
-----5-----------5---5-----------5---5------5-------5---------------
---4---------------4---------------4----------4-------4-----4--------
-6---------------------------------------------------------------------
-----------------------------------------------------------------------
----------------------------------------------------------------------

--------2-3-2p3h2-------------4-5-4p5h4----------------9---7---7---5----
------3-----------3---------5-----------5----------------------------
----2---------------4-----4---------------4--------8-9---7---7---6------
--0---------------------6-------------------6--------------------------
-----------------------------------------------------------------------
----------------------------------------------------------------------
Este fichero es trabajo propio de su transcriptor y representa su interpretación personal de la canción. El material contenido en esta página es
para exclusivo uso privado, por lo que se prohibe su reproducción o retransmisión, así como su uso para fines comerciales.

© LaCuerda.net · Aviso Legal · Privacidad