Acordes de Guitarra » M »Mar de Copas » Balada de un encuentro Fugaz (Tab)

Balada de un encuentro Fugaz
Mar de Copas

Letras, Notas, Punteos, Tablaturas y Acordes de Guitarra (Tabs & Chords)

  • Letra y Acordes
    AKORDES    B  224432
               A  577655
               G  355433
               Gm 355333
               D  000232
    
    Bm          A
     ke fuerte suena el viento
    G             D
    asi la pasa la vida
    Bm          A
    te dejo mi silencio
    G                Gm       A
    me llevo alguna pena de ti
    
    Bm             A
    ke duro es el silencio
    G              D
    ke bellos son sus ojos
    Bm                A
    
  • Tablatura
    A#m      G#      F#       C#  
    Ah Ah Ah Ah Ah Ah Ah Ah Ah Ah
    
    A#m      G#
    Ah Ah Ah Ah
    
        F#                   F#m           F#    G#   C#     
    -----------------------------------------------
    -----------------------------------------------
    -----------------------------------------------
    -----------------------------------------------
    ----8-8-8-9-9-9-8-6-9------9-8-8--9-8-8--9-8-8- 
    --------------------------------9------9------9
                               (BIS)
    
    
    A#m         G#      
    Que fuerte suena el viento
    F#       C#            
    asi pasa la vida
    
  • Tablatura
         A#m  G#   F#  C#
    
          AAAAAAAHHHHHHHH AAAAHHHHH
    
    
    
     e ------------------------------------------------------------
     b ------------------------------------------------------------
     g ------------------------------------------------------------
     d --------------3-4-4--4-3---4-(4)-4-3-3----4-3-3----4-3-3--
    -
     d --------------3-4-4---4-3--4-----4-3-3----4-3-3----4-3-3-----
     a ----------1-4------------4-------------4--------4--------4--
     e ------------------------------------------------------------
    
                                            (acordes: A#m-G#-F#-F#m-C#)..estos van con el tab
    
     e ---------------------------------
     b ---------------------------------
     g ---------------------------------
    
  • Tablatura
         A#m  G#   F#  C#
     
          AAAAAAAHHHHHHHH AAAAHHHHH
         
         A#m G#   F#  F#m  G#            C#
    
     e -----------------------------------------------------------    
     b -----------------------------------------------------------
     g -----------------------------------------------------------                                   
     d --------------3-4----4-3-3-4--4-3-3----4-3-3----4-3-3------                                   
     a ----------1-4-----------------------4--------4--------4----
     e -----------------------------------------------------------
    
               C#
    
     e ---------------------------------    
     b ---------------------------------
     g ---------------------------------          
     d ----4-3-3----4-3-3----4-3-3------           
     a ----------4--------4--------4----
    
  • Tab p/Bajo
    Intro:
    G-------------------------------------|
    D-------------------------------------|
    A---------4-4-4-4---------------------|
    E-6-6-4-4---------6-6-4-4-2-2/14-14/4-|
    
    G---------------------------------|
    D---------------------------------|
    A---------4-4-4-4---------4-4-4-4-|
    E-6-6-4-4---------6-6-4-4---------|
    
    Verso 1:
    G-----------------------------------|
    D-----------------------------------|
    A-------------4-4-------------------| x2
    E-6-6-4-4-2-2-----6-6-4-4-2-2-2-2-4-|
    
    Pre-coro:
    G------------|
    D------------|
    A------------|
    E-6-6-4-4-22-|
    
    Coro:
    G---------------------------------------------|
    D---------------------------------------------|
    A-643--------643--------643--------643--------|
    E----6-6-6-6----2-2-2-2----6-6-6-6----4-4-4-4-|
    
    G---------------------------------|
    D---------------------------------|
    A-4-4-4-4-----------------4-4-4-4-|
    E---------2-2-2-2-4-4-4-4---------|
    
    Solo:
    G---------------------------------------------------|
    D----------------------------------------------
  • +
    ¡Colabora con nosotros!
    Envíanos tu versión de esta canción

Letra de Balada de un encuentro Fugaz
ke fuerte suena el viento
asi la pasa la vida
te dejo mi silencio
me llevo alguna pena de ti
ke duro es el silencio
ke bellos son sus ojos
konservo una esperanza
tal vez asi se akuerde de mi
ohhh ohh ohhh ohh ohh ohh ohh oh oh
La viiiii por las alturas arriba de mi
Voleeeeee por la atmosfera hipnotizado volé
komo en un vuelo ideal me eleve
en el espacio estelar me eleve
por ultima vez yo keria ver
Dios y el diablo al ser el mismo
komparten la misma kara
la esperanza de la tumba se levanta
komo un rayo cegador
ven amigo ven
dame un beso brinda konmigo
pudiera haberle dicho
ke muero por sus ojos
ke kisiera tokarla
kisiera koMENTARLE
ke bella es su sonrisa
ke sola esta mi vida
ke el mundo me da risa
i ke el tb se rie de mi
ohhh ohh ohhh ohh ohh ohh ohh oh oh
La viiiii por las alturas arriba de mi
Voleeeeee por la atmosfera hipnotizado volé
komo en un vuelo ideal me eleve
en el espacio estelar me eleve
por ultima vez yo keria ver
yeeeh ahhh ahh ahah
ohhh ohh ohhh ohh ohh ohh ohh oh oh



© LaCuerda.net · Aviso Legal · Privacidad