Acordes de Guitarra » M »Mar de Copas » Ramera (Tab)

Ramera
Mar de Copas

Letras, Acordes y Tabs para Guitarra, Bajo y Ukulele

  • -------------------------------------
    ---0---1---1-0----0---1h3-1-0-1-0----
    -0---0---0------0---0-------------0--
    -------------------------------------
    -------------------------------------
    -------------------------------------
    
    G C (2)
    
    
    G            C 
    cuando tu me buscas
    G            C
    ya no me sonries
    G           C             G       C
    evitas las miradas y tratas de agredirme
    G            C
    cuando tu me buscas 
    G            C 
    trato de evadirte
    
  • e|--------------------------------------------------------------|
    B|--------------------------------------------------------------|
    G|------4--------5-----------5-4-------4s7-5-4-5-4--------------|
    D|----5------5------------5--------5---------------5------------|
    A|--------------------------------------------------------------|
    E|--------------------------------------------------------------|
    
    
    
    G            Cadd9
    Cuando tú me buscas
    G            Cadd9
    ya no me sonríes
    G           Cadd9              G       Cadd9
    evitas las miradas y tratas de agredirme
    G            Cadd9
    cuando tú me buscas
    G            Cadd9
    trato de evadirte
    G            Cadd9                  G          Cadd9
    
  • G -->         320022
    C9-->         X32022
    D -->         XX0232
    Bm-->         X24432
    C -->         X32010
    
    
    
    1/-------------------------------
    2/-------------------------------
    3/---4-5-5-4---4,-4/6-5-4-5-4----
    4/--5-5-5-----5--------------5---
    5/-------------------------------
    6/------------------------------- X2
    
    
    G            C9
    cuando tu me buscas
    G            C9
    ya no me sonries
    
  • e ----------------------------------------
    b ---0---1---1-0----0-1s3--1-0-1-0--------
    g -0---0---0------0----------------0------
    d ----------------------------------------
    a ----------------------------------------
    e ----------------------------------------
    repetir la intro
    
    de ahi.....este riff que entra junto con el platillo, los parantesis son armónicos.
    
    riff 1:
    
    e --------------------------------(12)--
    b --12--12------12----------------(12)--
    g --12--12----------12------12----(12)--    (x3)
    d --12--12--12----------10--------------
    a --10----------------------------------
    e -------------------------------------- 
    
    (y en la cuarta es asi)
    
  • +
    ¡Colabora con nosotros!
    Envíanos tu versión de esta canción
  • Tutorial
    HD
    Ramera - MAR DE COPAS (tutorial)
    3:30

Letra de Ramera
cuando tu me buscas
ya no me sonries
evitas las miradas y tratas de agredirme
cuando tu me buscas
trato de evadirte
porque me sigues ahora si antes nunca lo hiciste
seras feliz
nunca lo sabre
Rararararamera dejaras al niño
buscaras una ciudad nueva
engendraras un alma de egoismo
y querras irte con las maletas
y las llaves de la puerta

cuando tu me buscas
ya no me sonries
me escondes los cuchillos y tratas de agredirme
busca otro rebaño
es tiempo de lucirte
sonries por la calle a todo el que te enviste




[Ramera chords][Ramera cifra]
© LaCuerda.net · aviso legal · privacidad · es · en · pt · contacto