Acordes de Guitarra » M »Mar de Copas » SUNA (Tab)

SUNA
Mar de Copas

Letras, Acordes y Tabs para Guitarra, Bajo y Ukulele

  • C#5-(E5-C#5)-C#.......x4
    
    
    e ----------------4-----
    b ----------------6-----
    g ----------------6-----  ...x3
    d ----------------6-----
    a --4--7p(6)-4--4-------
    e ----------------------
    
    
    e ----------------------
    b ----------------------
    g ----------------------
    d ----------------------
    a --4--7p(6)-4----------
    e -------------4-6-(6)--
    
    
    
    
  • ----------------------------------------------------------------------------
    Hay un jueguito de acordes que se repite...
    que es en C#:
    
    C#*= C# (E - Eb - C#)
    Lo puedes hacer en el 10mo traste tipo E.
    O en el 4to traste tipo A.
    
    En ambos casos empezando de C#
    subes 3 trastes a E, bajas rápidamente (1) a Eb y (2 más)
    regresas a C#
    
    Gracias a Darío Ramos de Perú por fregar la paciencia!
    ----------------------------------------------------------------------------
    
    C#*
     No voy a estar cuando las sombras salen
    Bbm         Ebm Ab          C#
     voy a marchar cuando la noche cae
    Bbm        Ebm  Ab        C#
    
  • D5-F5
    No voy a estar cuando las sombras salen
    Bm             Em
    voy a marchar cuando la noche cae
    A             D 
    quiero ver más allá
    F#         Bm  
    del mundo donde un alma sin cesar
    Em                 A        D            
    entre sus alas va
    Bm             Em
    coge un amor y se va a volar
    A                 D 
    
    D5-F5
    
    El tiempo va acelerando marchas
    Bm        Em A          D        
    venías atrás, hoy hacia tus espaldas va
    Bm     Em    A          D            F#  
    
  • D - F - D [4 Veces]
    
       Bm       Em      A                D
     No voy a estar........cuando las sombras salen.
    
       Bm       Em      A              D        F#
     Voy a marchar ........cuando la noche cae.....
    
    
    ESTROFA:
    
                 Bm   Em
     Quiero ver más allá
    
           A             D                 Bm
     del mundo donde un alma sin cesar
    
                         Em
     entre sus aaaaalas va
    
    
  • bueno como vi que no avia tab desidi sacar este
    para los desorejados q no pueden
    transcripcion: fernando olivera (fert)
    v = a dejar sonar
    intro:
    G----------------------------------------------------
    D----------------------------------------------------
    A---4-4-4--7--4-4-4---44404-4-4-4--7-4-4-4---444------(x2)
    E-----------------------------------------------------
    
    no voy a estar (esto no tiene bajo)
    estrofa:
    G------------------------------------------------------
    D------------------------------------------------------
    A---------6-6-6--------4-4-4-------6-6-6----------------
    E---6-6-6--------4-4-4-------6-6-6-------2-2-2---4-4-4--
    intermedio:
    G----------------------------------------------------
    D----------------------------------------------------
    A---4-4-4--7--4-4-4---44404-4-4-4--7-4-4-4---444------
    E-----------------------------------------------------
    
    
    estrofa:
    G------------------------------------------------------
    D------------------------------------------------------
    A-------
  • +
    ¡Colabora con nosotros!
    Envíanos tu versión de esta canción
  • Tutorial
    HD
    Suna - MAR DE COPAS (tutorial pt1)
    4:17

Letra de SUNA
No voy a estar cuando las sombras salen
voy a marchar cuando la noche cae
quiero ver más allá
del mundo donde un alma sin cesar
entre sus alas va
coge un amor y se va a volar
El tiempo va acelerando marchas
venías atrás, hoy hacia tus espaldas va
flechas vienen y van
de seres cazadores de almas
sobre su presa van
coge un amor al azar

Ah ah ah ah
dos corazones solos y empiezas a volar

Y ves al volar dos corazones solos
en su alma soledad
Ah ah ah ah ah
sobre su boca un beso de su alma posarán
y van a volar con Suna
Nos va a salvar un rayo de ilusiones
llegó el final del ansia que su falta da
qué deberá importar
que se desarme el mundo sin parar
si puedo yo posar un beso en ti al final
Y ves al volar...(REGRESAR AL CORO)




[SUNA chords][SUNA cifra]
© LaCuerda.net · aviso legal · privacidad · es · en · pt · contacto