Acordes de Guitarra » M »Mar de Copas » Mujer Noche (Tab)

Mujer Noche
Mar de Copas

Letras, Acordes y Tabs para Guitarra, Bajo y Ukulele

  • Intro: C (4) G
    
    1)
           C
    Mujer Noche
        G             Am (Am-G-F)
    te volvere a atrapar
    F                         G
    entre las sombras de tus ojos pude ver
           C
    Mujer Noche
        G          Am  (Am-G-F)
    te volvere a buscar
    F                      G
    entre sue~os te converti en amanecer oh eh oh...
    
    2)
    C         G             Am
    Se que me escuchas tan callada
            F             G                  C
    
  • Este es la VERSION COMPLETA del anterior punteo que 
    envie y que aparece actualmente en el atame.
    Es facil de entender, ahí les va.
    
    |55-3-1-1-3-1--------------------3---3----3---3|
    |-------------3-1-----3---3---1----1----0---0--|
    |-------------------0---0----------------------|
    |----------------------------------------------|
    |----------------------------------------------|
    |----------------------------------------------|
    
    |55-7-8-88-7-5-3--10--10---10-----|
    |--------------------8---8----8~2-|
    |---------------------------------|
    |---------------------------------|
    |---------------------------------|
    |---------------------------------|
    
    comentarios,criticas,pedidos,etc escriban
    a luismi_4@latinmail.com
  •      C           
    
    e ---0----(o)------
    b ---1----(1)------
    g ---0----(0)------
    d ---2----(2)------
    a ---3----(3)------
    e -----------------
    
    
    PRE CORO :
     
            C                        Am   G  F
     Mujer Noche...te volvere a atrapa
    
                              G
     entre las sombras de tus ojos pude ver
     
            C           G            Am  G  F
     Mujer Noche ...te volvere a buscar
    
  • +
    ¡Colabora con nosotros!
    Envíanos tu versión de esta canción

Letra de Mujer Noche
1)
Mujer Noche
te volvere a atrapar
entre las sombras de tus ojos pude ver
Mujer Noche
te volvere a buscar
entre sue~os te converti en amanecer oh eh oh...
2)
Se que me escuchas tan callada
ves de reojo, luz pendiente de mis noches solitarias
se que camino a tus espaldas
tu cuidas de tus pasos muy despacio y sin pisar en falso
1)mujer noche.....
3)
Ciega y viva de pasion entre mis redes
no podras dejar atras lo que mas quieres
esta noche voy a ser cuando tu vuelves
el rumor del viento que susurro a tus oidos
que solo eres para mi.
mujer noche...
Que puedo hacer coger tu pelo al viento
tu corazon tomar tu mano y convertirte
de mis noches, la mujer.
1)mujer noche.....
4)
Suelta tu risa enamorada
nos robaron ma~anas colmadas
de bromas sin palabras
fuegos de un amor imposible
que ya no espera la distancia
del dia de su creacion.
1) 2) 1)
1)
Mujer noche....
Entre tus sombras pude ver
si no puedes dormir muy bien
veras el sol salir, mujer
te converti en amanecer.
Basado en una transcripcion de Jorge Cuadra S.
(oci06@rree.gob.pe)




[Mujer Noche chords][Mujer Noche cifra]
© LaCuerda.net · aviso legal · privacidad · es · en · pt · contacto