Tablatura para Guitarra de Maná: Vivir sin Aire
Conexión · Inscripción
Letras y Acordes
Pantalla Completa
Imprimir
Versión Texto
Añadir Favorito
Otras Versiones

Mostrar Diagramas
Desfile Automático
Manipular Acordes
Formato del Texto


Maná
Vivir sin Aire(TAB)
calidad:
mana0677
AUTOR: Fher Gonzalez
ALBUM: Donde Jugaran los Niños? (1992)
Enviado por Mario
que tranza chavos, este es mi primer tab, pero esta bien hecho,
no esta muy dificil pero si cuesta algo de trabajo oir todas las notas
asi que chequenla bien
y vean que esta mas chida que algunas otras versiones

esta va para toda la banda que empieza a tocar,
 echenle ganas chavos, todo se puede!!!

aqui esta el intro
e|-3---------5-|--2-----5----|--0----3-----|--2-------3------|
B|-3-----------|--3---3---3--|--1---1--1---|--3---3s5---53---|
G|---0-----0---|--2--2-----0-|--0--0----0--|--2--------------|
D|-------------|-------------|-------------|--0--------------|
A|-----0h2-----|--2----------|--3----------|-----------------|
E|-3-----------|-------------|-------------|-----------------|

e|--3---------5-|--2-----5----|--0----3----|--3-3--2-2--0-0------|
B|--3-----------|--3---3---3--|--1---1--1--|--3-3--3-3--1-1--3-3-|
G|----0-----0---|--2--2-----0-v--0--0------|-----------------4-4-|
D|--------------|-------------|------------|---------------------|
A|------0h2-----|--2----------|--3---------|---------------------|
E|--3-----------|-------------|------------|---------------------|

e|--3---------5-|--2-----5----|--0----3-----|--2------3------|
B|--3-----------|--3---3---3--|--1---1--1---|--3--3s5---5-3--|
G|----0-----0---|--2--2-----0-|--0--0----0--|--2-------------|
D|--------------|-------------|-------------|--0-------------|
A|------0h2-----|--2----------|--3----------|----------------|
E|--3-----------|-------------|-------------|----------------|

e|--3---------5-|--2-----5----|--0----3----|--2--|
B|--3-----------|--3---3---3--|--1---1--1--|--3--|
G|----0-----0---|--2--2-----0-|--0--0----0-|--2--|
D|--------------|-------------|------------|--0--|
A|------0h2-----|--2----------|--3---------|-----|
E|--3-----------|-------------|------------|-----|

G Bm C D G Bm7 C D Como quisiera poder vivir sin aire
G Bm C D G Bm7 C D Como quisiera poder vivir sin agua
G Bm C D G Bm7 C D Me encantaria quererte un poco menos
G Bm C D G Bm7 C D Como quisiera poder vivir sin ti
C D Em C Pero no puedo, siento que muero
G D Me estoy ahogando sin tu amor
Em C G Como quisiera poder vivir sin aire
Em C D Como quisiera calmar mi afliccion
Em C G Como quisiera poder vivir sin agua
Em C D Me encantaria robar tu corazon INTRO X2 (aqui se toca con los mismos acordes de arriba) Como pudiera un pez nadar sin agua Como pudiera un ave volar sin alas Como pudiera la flor crecer sin tierra Como quisera poder vivir sin ti Pero no puedo, siento que muero Me estoy ahogando sin tu amor Como quisiera poder vivir sin aire Como quisera calmar mi afliccion Como quisiera poder vivir sin agua Me encantaria robar tu corazon Como quisera lanzarte al olvido Como quiera guardarte en un cajon Como quisiera borrarte de un soplido Me encantaria matar esta cancion
FINAL (G Bm C D) X2 G aqui esta, disfrutenla y si tienen quejas, sugerencias, traumas etc. ya sabran a quien mandarlas
Este fichero es trabajo propio de su transcriptor y representa su interpretación personal de la canción. El material contenido en esta página es
para exclusivo uso privado, por lo que se prohibe su reproducción o retransmisión, así como su uso para fines comerciales.
© LaCuerda.net · Aviso Legal · Privacidad