Acordes de Guitarra » M »Maná » No ha parado de llover (unplugged) (Tab)

No ha parado de llover (unplugged)
Maná

Letras, Acordes y Tabs para Guitarra, Bajo y Ukulele

  • -----------------0-¦   ----------------0-¦   ----------------0---¦    ----------------0----¦
    ---3-3-2-2-0---2---¦   -3-3-2-2-0---2----¦   --3-3-2-2-0---2---2-¦    ---3-3-2-2-0---2--2--¦
    ---2-2-2-2-2-2-2---¦x2 -0-0-0-0-0-0-0----¦x2 --2-2-2-2-2-2-2----2¦x2  ---0-0-0-0-0-0-0---2 ¦x2
    -------------------¦   ------------------¦   --0-----------------¦    ---0-----------------¦
    -------------------¦   ------------------¦   --------------------¦    ---------------------¦
    -------------------¦   ------------------¦   --------------------¦    ---------------------¦
    
    La guitarra sólo hace esto. Son los violines los que le dan más melodía
    
    --------------------------0---2-0---------------------------0---2---¦    la segunda vez no se toca
    ----3--3--3--3--3---3--3-------------3--3--3--3--3---3--3-----------¦    la última nota
    ---2--2--2--2--2---2--2--2---2------2--2--2--2--2---2--2--2---2-----¦x2
    --------------------------------------------------------------------¦
    --------------------------------------------------------------------¦
    --------------------------------------------------------------------¦
    
    Pero si quieres darle un poco de melodía al punteillo para que quede como el de los violines:
    
    
    --------------------0---2-0---2-2-3-3-3-----2---2---0---2--0--¦    la segunda vez no se toca
    
  • D9 = RE9                  con cejillo
    
    E -------------         ---5------------
    B ---3---------         ---5------------
    G ---2---------         ---7------------
    D -------------         ---7------------
    A -------------         ---5------------ 
    E -------------         ---5------------
    
    A9 = LA9
    
    E -------------
    B -------------
    G ---2---------
    D ---2---------
    A -------------
    E -------------
    
    G6 = SOL9
    
    
  •    B-33--22--00-222--33--22--00--222------------
       G-22--22--22-222--22--22--22--222------------
       D-00--00--00-000--00--00--00--000------------
       A--------------------------------------------
       E--------------------------------------------
                                                       esto se hace 2 veces
        cont.
       e--------------------------------------------I
       B--33--22--00--222--33--22--00--222----------I
       G--00--00--00--000--00--00--00--000----------I
       D--00--00--00--000--00--00--00--000----------I
       A--00--00--00--000--00--00--00--000----------I
       E--33--33--33--333--33--33--33--333----------I
    
    Esto es un rasgueo, escucha el cd para que agarres la onda.
    
    
                                                 ARPEGEO 1
    
    
    
  • KE ONDA, BUENO ALLI LES MANDO ESTA TAB PARA BASS
    ESTA FACIL, PERO ESCUCHENLA BIEN, PARA QUE METAN BIEN 
    LOS TIEMPOS Y TODAS ESAS MADRES. BYE SE CUIDAN
    dedicada para una chava especial
    
    INTRO
    ENTRA DESPUÉS DE LA BATERIA
    (HAGAN COMO HARMONICOS CUANDO ES AL AIRE, PERO MUY LEVE)
    
    G--------------------------------------------------
    D--------------------------------------------54----
    A-5(0)5(0)5(0)5(0)54--2-2-2(0)-2---------------5---
    E--------------------------------3-3--3-(0)-3------
      D                  B          G
    
    G------------------------------------------------
    D------------------------------------------------
    A-5(0)5(0)5(0)5(0)54--2-2-2(0)-2------------5----
    E---------------------------------3-3--3-(0)-----
      D                   B           G
    VERSO: 
    SE QUE TE PERDI, LA LUZ SE HA PUESTO MUY MOJADA
    MIRADA TRISTE ESTA NUBLADA
    
    Y EN MIS OJOS NO HA PARADO DE LLOVER...
    G-------------------------------
    D-------------------------------
    A-5(0)5(0)5(0)5(0)5(0)5---
  • +
    ¡Colabora con nosotros!
    Envíanos tu versión de esta canción

Letra de No ha parado de llover (unplugged)
La guitarra sólo hace esto. Son los violines los que le dan más melodía
Pero si quieres darle un poco de melodía al punteillo para que quede como el de los violines:
ARPEGIO INICIAL: ('Desde que te perdí, la luz....... y en mis ojos no ha parado de llover')
Después que se canta por 2º vez el coro
ARPEGIO FINAL ('No para de llover')
ACORDES A UTILIZAR
B-7mj = Sim7mj (Si menor con séptima mayor)
Ojalá les guste, y mejor todavía, ojalá que se puedan coordinar al tocarla con 2 guitarras.
Una que haga los acordes y la otra estas tablaturas. Sale bien, porque ya la he tocado con un
amigo y no se escucha nada de mal (Es un unplugged casero).
Si necesitan los acordes los tengo escritos aquí también.
Chao
Carlos Arriagada




[No ha parado de llover (unplugged) chords][No ha parado de llover (unplugged) cifra]
© LaCuerda.net · aviso legal · privacidad · es · en · pt · contacto