Acordes de Guitarra » M »Maná » Donde jugarán los niños (Tab)

Donde jugarán los niños
Maná

Letras, Acordes y Tabs para Guitarra, Bajo y Ukulele

  • Am          C            G         E7  
    Cuenta el abuelo que de ni~o el jugo
          Am         C            G          E7 
    entre arboles y risas y alcatraces de color.
    Am           C          G            E7      
    Recuerda un rio transparente y sin olor
          Am         C           G           E7  
    donde abundaban peces no sufrian ni un dolor.
    
    
    Am           C           G            E7    
    Cuenta el abuelo de un cielo de muy azul
      Am            C            G            E7 
    donde volo papalotes que el mismo construyo.
                 Am           C           G 
    El tiempo paso y nuestro viejo ya murio
    E7             Am  C          G             E7
    y hoy me pregunte despues de tanta destruccion.
    
    
    
  • D: Bm         = 2 2 4 4 3 2
    D: D          = X 0 0 2 3 2
    D: A          = 0 0 2 2 2 0
    D: F#         = 2 4 4 3 2 2
    D: G          = 3 2 0 0 0 3
    
    
    INTRO
    
        Bm        D                A           F#
    
    E -------0--------------7--5--------0----------------
    B ---------3---------------------------0---------2--2
    G -----4-------------7-----------2---------------4--3
    D -----------------7-------------------------2-------
    A --2----------2/5-------------0---------------------
    E -----------------------------------------2---------
    
        Bm        D                A           F#
    
    
  • Bm D A F#m
    Bm D A F#m
    
    RIFF
    E----------------
    A----------------
    D-----9-7---9-h7-
    G--6------6------
    B----------------
    e----------------
    h - hammer on
    
    RIFF 2
    E--------------------
    A--------------------
    D---7-h-9---9-7------
    G---------7----h-7---
    B--------------------
    e--------------------
    
    
  • INTRO:Bm D A F# X2
    RIFF:
    1.---------------|
    2.---------------|
    3.-7-9-7----7----|
    4.-------9----9v-|
    5.---------------|
    6.---------------|
    
     VERSOS:
    
    Bm          D            A        F#m  F#
    Cuenta el abuelo que de niño el jugo
           Bm         D            A          F#m F#
    entre arboles y risas y alcatraces de color
     Bm                     D            A   F#m F#
    Recuerda un rio transparente y sin olor
          Bm         D           A           F#m F#
    donde abundaban peces no sufrian ni un dolor.
    
    
  • Me encanta
    
    Intro
    E|----|-----|-5-5--5-2-|---|-----|-5-5----2--|
    A|--2-|-245-|----4-----|-2-|-245-|----4/7----|
    D|----|-----|----------|---|-----|-----------|
    G|----|-----|----------|---|-----|-----------|
    
    Cuenta el abuelo
    E|----|-----|-5-5--5-2-|---|-----|-5-5----2--|
    A|--2-|-245-|----4-----|-2-|-245-|----4/7----|x4
    D|----|-----|----------|---|-----|-----------|
    G|----|-----|----------|---|-----|-----------|
    
    Donde diablos jugaran
    E|--3-|-5-|-7-757-7757-|-3-|-5-|-5-----3-5-|-7-757-7757-|-3-33-|-2222--|
    A|----|---|------------|---|---|--5-54-----|------------|------|-------|
    D|----|---|------------|---|---|-----------|------------|------|-------|
    G|----|---|------------|---|---|-----------|------------|------|-------|
    
    E|----|-----|-5-5--5-2-|---|-----|-5-5----2--|
    A|--2-|-245-|----4-----|-2-|-245-|----4/7----|
    D|----|-----|----------|---|-----|-----------|
    G|----|-----|----------|---|-----|-----------|
    
    la tierra
    E|----|-----|-5-5--5-2-|---|-----|-5-5----2--|
    A|--2-|-245-|----4-----|
  • bueno ps aki les traigo la kancion de
    donde jugaran los niños de la version
    de arde el cielo el nuevo disko de mana
    esta cancion es mui buena
    y muy facil exepto en algunas partes
    espero ke ste bien =S
    
    Intro
    E|-----------|-----------|
    A|--22--454-2|--22--454-2|
    D|-----------|-----------|
    G|-----------|-----------|
    
    E|-----------|--55--5---2|
    A|--22--454-2|----4------|
    D|-----------|-----------|
    G|-----------|-----------|
    
    E|-----------|--7-7-7--7---4-|
    A|--24--676-4|--------6------|
    D|-----------|---------------|
    G|-----------|---------------|
    
    
    Cuenta el abuelo
    E|-------------|-5(4)-52(4)-|-------------|-5-5/2(4)---|
    A|--2(4)-45(4)-|------------|-2(4)-4/5(4)-|------------|x2
    D|-------------|------------|-------------|------------|
    G|-------------|------------|-------------|------------|
    
    Cuenta mi abuelo
    E|-------------|-5(4)-5/2(4)-|-------------|-5-52(4)----|
    A|-2(4)-4/5(4)-|-------------|--2(4)-45(4)-|------------|x2
    D|-------------|-------------|-------------|------------|
    G|----
  • Em C 
     Cuenta el abuelo 
     SI SI SO DO SI 
    
     G B7 
     Que de niño él jugó 
     LA SO #F SO LA #F SI 
    
     Em C 
     Entre arboles y risas 
     #F #F SO SO SO MI SO MI 
    
     G D 
     Y alcatraces de color. 
     SI SI LA SO #F SO LA 
    
     Em 
     Recuerda un río 
     SI SI SI SO MI 
    
     C G B7 
     Transparente y sin olor 
     SI SI DO SI LA RE LA 
    
     Em C 
     Donde abundaban peces 
     #F SO SO SO MI SO RE 
    
     G D 
     No sufrían ni un dolor. 
     SI SI LA SO #F MI RE 
       
    
     Em C 
     Cuenta el abuelo 
     SI SI SO DO SI 
    
     G B7 
     De un cielo muy azul 
     LA SO #F SO LA # F SI 
    
     Em C 
     En donde voló papalotes 
     #F SO SO SO MI #F SO SO RE 
    
     G D 
     Que el mismo construyó. 
     SI SI LA SO #F SO LA 
    
     Em 
     El tiempo pasó 
     MI SI MI SI MI 
    
     C G 
     Y nuestro viejo ya murió 
     SI SI SI DO SI LA RE LA 
    
     B7 Em 
     Y hoy me pregunté 
     MI RE SI LA SI 
    
     C D 
     Después de tanta destrucción. 
     SO SO SO SO #F MI RE RE 
    
    
     <Inicia el CORO> 
     C D Em 
     ¿Dónde diablos jugarán? 
    
  • +
    ¡Colabora con nosotros!
    Envíanos tu versión de esta canción

Letra de Donde jugarán los niños
Cuenta el abuelo que de ni~o el jugo
entre arboles y risas y alcatraces de color.
Recuerda un rio transparente y sin olor
donde abundaban peces no sufrian ni un dolor.
Cuenta el abuelo de un cielo de muy azul
donde volo papalotes que el mismo construyo.
El tiempo paso y nuestro viejo ya murio
y hoy me pregunte despues de tanta destruccion.
Donde diablos jugaran
los pobres ninnos? ay ay ay!
en donde jugaran
se esta pudriendo el mundo
ya no hay lugar.
La Tierra esta a punto de partise en dos
el cielo ya se ha roto, ya se ha roto el llanto gris
la mar vomita rios de aceite sin cesar
y hoy me pregunte despues de tanta destruccion.
Donde diablos jugaran
los pobres ninnos? ay ay ay!
en donde jugaran
se esta pudriendo el mundo
ya no hay lugar.




[Donde jugarán los niños chords][Donde jugarán los niños cifra]
© LaCuerda.net · aviso legal · privacidad · es · en · pt · contacto