Acordes de Guitarra » M »Maná » Como dueles en los labios (Tab)

Como dueles en los labios
Maná

Letras, Acordes y Tabs para Guitarra, Bajo y Ukulele

  • G                   D/F# 
    Como dueles en los labios
    G                   D/F#                   
    como duele en todos lados
    G                   D/F#
    como duelen sus caricias 
           B7         Em   D/F# 
    cuando ya se ha ido.
    
    G                    D/F#   
    Como me duele la ausencia
    G                    D/F# 
    como extraño su color de voz
    G                   D/F#
    como falta su presencia
             B7    Em  Am7  G  
    en mi habitacion.
    
    C                    G7
    Como me duele el invierno
    
  •       G                  D                         
    -E-------------------0------------------------------
    -B-3-----3-----3----------3----3-----3-----1--0-----
    -G----0-----0-----0---0-----2-----2-----2-----------   X4
    -D--------------------------------------------------
    -A--------------------------------------------------
    -E-3----------------------2-------------------------
    
      G                        D   
    -E--------------------0------------------------------
    -B-3-----3-----3-----------3--3-----0-----1----------
    -G----0-----0-----0-----0--------2-----2-----2--2----
    -D---------------------------------------------------
    -A---------------------------------------------------
    -E-3-----------------------2-------------------------
                Como dueles en los labios
    
        G                        D
    -E---------------------0------------------------------
    -B--3-----3-----3------------3-----3-----3-----1------
    
  • G                  D
    -E-------------------0------------------------------
    -B-3-----3-----3----------3----3-----3-----1--0-----
    -G----0-----0-----0---0-----2-----2-----2-----------   X4
    -D--------------------------------------------------
    -A--------------------------------------------------
    -E-3----------------------2-------------------------
    
      G                        D
    -E--------------------0------------------------------
    -B-3-----3-----3-----------3--3-----0-----1----------
    -G----0-----0-----0-----0--------2-----2-----2--2----
    -D---------------------------------------------------
    -A---------------------------------------------------
    -E-3-----------------------2-------------------------
                Como dueles en los labios
        G                        D
    -E---------------------0------------------------------
    -B--3-----3-----3------------3-----3-----3-----1------
    -G-----0-----0-----0-----0------2-----2-----2-----2---
    
  •  G           D
    e-------------0-----------------------|
    B-3---3---3---------3---3---3----1p0--|
    G---0---0---0---0-----2---2---2-------| x4
    D-------------------------------------|
    A-------------------------------------|
    E-3-----------------2-----------------|
      G          D
    e-------------0-----------------------
    B-3---3---3---------3---3---0---1-----
    G---0---0---0---0-----2---2---2---2---
    D-------------------------------------
    A-------------------------------------
    E-3-----------------2-----------------
        Como dueles en los labios
      G           D
    e-------------0-----------------------
    B-3---3---3---------3---3---3---1-----
    G---0---0---0---0-----2---2---2---2---
    D-------------------------------------
    
  •     G                D/F#
    e---------------0----------------------|
    B---3---3---3--------3---3---3---1/0---|
    G-----0---0---0---0----2---2---2-------|
    D--------------------------------------|
    A--------------------------------------|
    E---3----------------2-----------------|
    
        G                D/F#
    e---------------0----------------------|
    B---3---3---3--------3---3---3---1/0---|
    G-----0---0---0---0----2---2---2-------|
    D--------------------------------------|
    A--------------------------------------|
    E---3----------------2-----------------|
    
    
    en este punto entra el toque de la flauta,
    solo debmos repetir...
    
    
  • INTRO (x4)
    
    e ---------------0-----------------------
    b --3---3---3---------3---3-3----1-0-----
    g ----0---0---0-----0---2--2-2-----------
    D ---------------------------------------
    A ---------------------------------------
    E --3-----------------2------------------
     
    ...Como dueles en los labios
    
    e -------------------------------------------------------
    b --3--3--3--3---3-3---0-1---3--3--3--3---3-3-3----1-0---
    g ---0--0--0--0---2-2---------0--0--0--0---2-2-2---------
    D -------------------------------------------------------
    A -------------------------------------------------------
    E --3------------2-----------3------------2--------------
    
    ..como duelen sus caricias cuando ya...
    
    e ------------------------------2------------------------
    b --3---3---3--3--3--3--------0---0-0-0-0-0-0-0--3-3-----
    g ----0---0--0--0---2-2-----2------0-0-0-0-0-0-0--2-2----
    D ------------------------1------------------------------
    A -------------------------------------------------------
    
  • G:|------------|------------|------------|------------|
    D:|------------|------------|------------|------------|
    A:|-10---------|-9----------|-10---------|------------|
    E:|------------|------------|------------|-10---------|
    
    G:|------------|------------|------------|------------|
    D:|------------|------------|------------|------------|
    A:|-10---------|-9----------|-7----------|---------9--|
    E:|------------|------------|------------|------------|
    
    G:|------------|------------|------------|------------|
    D:|------------|------------|------------|------------|
    A:|-10---------|-9----------|-10---------|------------|
    E:|------------|------------|------------|-10---------|
    
    G:|------------|------------|------------|------------|
    D:|------------|------------|------------|------------|
    A:|-10---------|-9--------6-|-7----------|-7----------|
    E:|------------|------------|------------|------------|
    
    G:|------------|------------|------------|------------|
    D:|------------|------------|------------|--
  • Chequen esta cancion el acompañamiento del bajo se escucha muy bien y la tab
    es 100% correcta;escuchenla varias veces y veran q si sale..
    Dudas, comentarios, peticiones a mi mail. (duff_jc@hotmail.com)
    
      0:22
    G:---|---|---|---|--------|------|---|---|---|---|-------|--------|
    D:---|---|---|---|--------|------|---|---|---|---|-------|--------|
    A:10-|-9-|10-|-9-|10-9-6-7|7-9-10|-9-|10-|-9-|10-|-9-6-7-|-7-0-2-3|
    E:---|---|---|---|--------|------|---|---|---|---|-------|--------|
    
    
    G:----|----|-----|----|----|----|-----|---|---|---|----|----|-----|
    D:----|----|-----|----|----|----|-----|---|---|---|----|----|-----|
    A:-2-3|-2-3|-----|-5-3|-2-3|-2-3|-----|---|---|---|--3-|-2-3|-2-3-|
    E:3---|3---|3-4-5|5---|3---|3---|3-4-5|5-3|3-2|2-1|3---|3---|3----|
    
    
    G:-----|---|---|---|---|---|------------|------------|------------|
    D:-----|---|---|---|---|---|------------|------------|------------|
    A:-----|---|---|---|--3|3-2|12-10-9-5-7-|12-10-9-5-7-|12-10-9-5-7-|
    E:3-4-5|5-3|3-2|2
  • +
    ¡Colabora con nosotros!
    Envíanos tu versión de esta canción
  • Tutorial
    HD
    Como tocar Como Duelen Los Labios - Maná
    4:36

Letra de Como dueles en los labios
Como dueles en los labios
como duele en todos lados
como duelen sus caricias
cuando ya se ha ido.
Como me duele la ausencia
como extraño su color de voz
como falta su presencia
en mi habitacion.
Como me duele el invierno
como me duele el verano
como me envenena el tiempo
cuando tu no estas.
Como duele estar viviendo
como duele estar muriendo asi
como me duele hasta el alma
en mi habitacion
Como dueles en los labios
en todos lados soledad
Como me duele no verte
como duele en madrugada
Como duele en los labios
como duele en madrugada




[Como dueles en los labios chords][Como dueles en los labios cifra]
© LaCuerda.net · aviso legal · privacidad · es · en · pt · contacto