Acordes de Guitarra » M »Mago De Oz » Mujer Amante (Tab)

Mujer Amante
Mago De Oz

Letras, Acordes y Tabs para Guitarra, Bajo y Ukulele

  • Am                                    G
    Siento el calor de toda tu piel en mi cuerpo otra vez
    Am               F                 G
    Estrella fugaz enciende mi ser, misteriosa mujer
    F                               Am
    Con tu amor sensual, cuanto me das
                G      F   C
    Haz que mi sueño sean una verdad
                F              Am
    Dame tu alma hoy, haz el ritual
                G      F   E
    Llévame al mundo donde pueda soñar
    
    Am     C                  G                Am
    Uuuhh Debo saber si es verdad que en algún lado estas
      Am     C       G             Am
    Voy a buscar una señal, una canción
    Am     C                  G                Am
    Uuuh Debo saber si en verdad en algún lado estas
      Am          C    G                Am G F
    
  • Am                                  C               G
    Siento el calor de toda tu piel en mi cuerpo otra vez
    Am               F                 C           G
    Estrella fugaz enciende mi ser, misteriosa mujer
    F                               Am
    Con tu amor sensual, cuanto me das
                         G   Dm  C
    Haz que mi sueño sea una verdad
                F                            Am
    Dame tu alma hoy, haz el ritual
                       G       Dm   E
    Llévame al mundo donde pueda soñar
    
    Am     C                  G                Am
    Uuuhh Debo saber si es verdad que en algún lado estas
      Am     C       G        Em       Am
    Voy a buscar una señal, una canción
    Am     C                  G                Am
    Uuuhh Debo saber si en verdad en algún lado estas
      Am          C    G                Em Am G
    
  • Que pedo kabrones?? me extrañaban? xD...aqui esta el solo de mujer amante de belfast, espero lo
    disfruten.
    
    (3:54) – Solo de guitarra electrica
    E|-------------------------------------------------------------------------------------------
    B|----------------8-------------------------------10--p8p6h8--p6p5h6--p5---------------------
    G|--7b9-7b9---9b7---7b9b7--5h7p5----5------------------------------------7-7b9--9p7-7b9b7-5~-
    D|-------------------------------7~---7p5----------------------------------------------------
    A|----------------------------------------\5p3-----------------------------------------------
    E|---------------------------------------------5~--------------------------------------------
                                                                    *****************
    ---------12-15b17—17-17--17b15-12----------------------------15-----------------------------
    ------13--------------------------15b17b15p13h15~-13-15b17------17-17-16-16-15-15-15p13-----
    ---14---
  • e---0--0--0--0----0-------4---------------------------------------------------
    B----55-55-55-55--5---5-6---6-5-3-6-5-3---5-3------3-2------2---------------
    G---------------------------------------6------6-3------3-2----3-2-0-3-2-0-3
    D-------------------------------------------------------------------
    A--7------------------------------------------------------------------------
    E5--------------------------------------------------------------------------
    
    
      LA5
    e--0-0-0-
    B--0-0-0-
    G--5-5-5-
    D--5-5-5-
    A--0-0-0-
    E--------
    
    e-----0/10---------------------------------------------------------
    B-1-3-------3-1-0--0-1-3-1-0-10------------------------------------
    G--------------------------------2--0-------------------------------
    D-------------------------------------3-2--2-3-0--3-2-0-------------
    
  • Mujer Amante
    
    -----------------------------------------------|
    v= vibrato                                     |
    "-1-11-" no es en el onceavo traste sino 1-1   |
    p= pull off                                    |
    -----------------------------------------------|
    
    Intro
    Min 0.37
    
    G|--------|------------------------------|
    D|--------|----------------2-1-----------|
    A|-3------|----------2--5-5----555-55553-|
    E|---3--5-|-1-22--5-5--------------------|
    
    Min 0.52
    
    -----------------------|
    ---------2-------------|
    ------5-5--5-5--1-1111-|
    -2-44---------5--------|
    
    Min 1.02
    
    ---------------------------------------------------
    ---------------------------------------------------
    ---------------------2------------------------2----
    -5-55-5-55-3-33-3-3-5-5-3-5-55-1-11-3-33-3-3-5-5-3-
    
    ----------------------------------------------
    ----------------------------------------------
    -------------------4---------5-55-3-33-3-33p2-
    -1-11-1-11-5-55-5-7-7-5-3-33------------------
    
    --------------------------------
  • Hola!!
    Aquí les dejo una de las canciones de Rata Blanca que más
    me gustan, para violin o flauta. Ojo: Mägo de Oz la
    toca padre también, por lo
    que la dejo con ellos de interprete.
    
    No hay sostenidos ni bemoles!!!
    
    Intro:
    mi la la la la si do re
    sol sol sol la si do la (2 veces.En la segunda queda hasta "do")
    mi mi fa sol fa mi re do
    si si do re re do
    mi mi fa sol fa mi re do
    si si do re do, re mi
    
    Estrofas:
    Al amanecer...
    mi re do do
    la do do la do
    do do re si la sol
    
    la do re do re
    do mi mi mi mi re do do
    do do mi mi do mi re
    
    Con tu amor...
    do si la do re
    re do si do si la
    mi mi mi mi re
    si do mi mi re mi
    
    do si la do re
    re do si do si la
    mi mi mi mi re, si do mi
    re do si mi
    
    Coro:
    la, mi fa mi sol fa mi re
    si do re re, do do
    la sol mi la, sol fa mi sol
    re do si la (2 veces)
    
    Y ya de ahi, se van repitiendo el intro, el coro y las
    estrofas según corresponda. Califiquenme, no sean gachos!!!!
  • Mujer Amante
    
    DO MI MI MI MI RE MI SOL DO DO DO RE
    RE MI DO DO
    DO MI MI MI MI RE MI SOL DO DO DO RE
    RE MI
    MI MI FA MI SOL FA MI RE DO DO DO DO RE RE DO DO
    MI MI FA MI SOL FA MI RE DO DO DO RE DO DO RE MI
    
    Siento el calor, de toda tu piel, en mi cuerpo otra vez.
    Si  la sol sol ,  mi sol sol mi sol,  sol sol la fa# fa# mi re
    
    Estrella fugaz, enciende mi ser, misteriosa mujer
    Re sol la sol si, Si si la sol  sol , Sol sol la la sol si sol la
    
    con tu amor sensual, cuanto me das.
    Fa# fa# fa# sol la, La sol fa# sol fa# mi
    
    Haz que mi sueño sea una verdad.
    Si si si si la fa# sol, Si la sol si
    
    Dame tu alma hoy, haz el ritual,
    Fa# fa# fa# sol la,  La sol fa# sol fa# mi
    
    llévame al mundo donde pueda soñar.
    Si si si si la fa# sol, Si la sol si
    
    Uh... debo saber si es verdad, en algún lado estás,
    Mi6… si do6 si re6 do6 si la, fa# sol la la
    si sol,
    
    voy a buscar una señal, una canción.
    mi6 re6 do6 mi6 si la sol si (do si la) fa# mi re mi
    
    Uh... debo saber si es verdad, en algún lado estás
  • +
    ¡Colabora con nosotros!
    Envíanos tu versión de esta canción

Letra de Mujer Amante
Siento el calor de toda tu piel en mi cuerpo otra vez
Estrella fugaz enciende mi ser, misteriosa mujer
Con tu amor sensual, cuanto me das
Haz que mi sueño sean una verdad
Dame tu alma hoy, haz el ritual
Llévame al mundo donde pueda soñar
Uuuhh Debo saber si es verdad que en algún lado estas
Voy a buscar una señal, una canción
Uuuh Debo saber si en verdad en algún lado estas
Al amanecer tu imagen se va, misteriosa mujer
Dejaste en mi lujuria total, hermosa y sensual
Corazón sin dios, dame un lugar
En ese mundo tibio, casi irreal
Deberé buscar una señal
En aquel camino por el que vas
Uuuhh Debo saber si es verdad que en algún lado estas
Voy a buscar una señal, una canción
Uuuh Debo saber si en verdad en algún lado estas
Tu presencia marcó en mi vida el amor, lo sé
Es difícil pensar en vivir ya sin vos
Corazón sin dios, dame un lugar
En ese mundo tibio, casi real
Uuuhh Debo saber si es verdad que en algún lado estas
Voy a buscar una señal, una canción
Uuuh Debo saber si en verdad en algún lado estas
Bueno es mi segunda transcripción y me salió muy bien les mando
/ un saludo a mis panas de colegio “Solidaridad” que son una
/ bestia y lo que siempre les digo saquen todo su potencial esa
/ canción va para ella Zafiro q espero me digas que si




[Mujer Amante chords][Mujer Amante cifra]
© LaCuerda.net · aviso legal · privacidad · es · en · pt · contacto