Acordes de Guitarra » M »Mago De Oz » Hasta que tu muerte nos separe (Tab)

Hasta que tu muerte nos separe
Mago De Oz

Letras, Notas, Punteos, Tablaturas y Acordes de Guitarra (Tabs & Chords)

  • Letra y Acordes
    LA puse aquí...
    
       C           G
    e|------0-----------1--------------|
    B|-----1-1---------0-0-------------|
    G|----0---0-------0---0------------|
    D|---2-----2-----0-----0-----------|
    A|--3-------3---2-------2---5^4^2--|
    E|-0---------0-3---------3--3^2^0--|
                                .....     p.m. 
    
      Uh......................
      ¡Ooooooooooooooooooh!.............         
    
    Dm           Bb 
    Tan solo quiero que mi voz 
    F                      C
    te desespere y robe la razon
    Dm            Bb 
    implorando que te abrase 
    
  • Letra y Acordes
    Intro:     G     C     D    Em  (2 veces)
    Em   C   D   (4 veces)
    
    Em                     C
    Tan solo quiero que mi voz
           D                 Em
    te desespere y robe la razon
                           C
    y llorando que te abraces
    D                 Em
    a tus miedos, corazon
    
    
    Em                  C
    Espero el dia "muñequita linda"
              D            Em
    en que tu herida sea tan fuerte
                         C
    que bañándote en recuerdos,
    D                 Bm
    
  • Tablatura
    tema: 'hasta que tu muerte nos separe'
    album: 'jesus de chamberí'
    año: 1996
    
    Mägo de oz son:
    josé (voz/teclado)
    mohamed (violin)
    carlitos (guitarra)
    frank (guitarra)
    salva (bajo)
    txus (bateria)
    
    intro:
    
    e--3----------------------------------------------------3--
    B----3---3---------------1------3-----------------------3--
    G------0---0---0-------0---0------0---0-----------------0--
    D------------0---0---2-------2------4---4---4-----------0--
    A------------------3----------------------5---5--2h5h2--2--
    E-------------------------------------------------------3--
                 pm-          pm-       pm-
    e----------------------------------------------------------
    B----------------------------------------------------------
    G----------------------------------------------------------
    D----------9-----9-10--10----9-7--7-----7-9----------------
    A--5-4-2---7-----7-8---8-----7-5--5-----5-7----------------
    E--3-2-0-----0-0---------0-0--------0-0--------------------
    
    e---
  • Tablatura
    E||---3-----------------------|------------------------|----------------
    B||------3-----3--------------|-----------1------------|--3-------------
    G||*--------0-----0-----0-----|--------0-------0-------|-----0-----0----
    D||*-----------------0-----0--|-----2-------------2----|--------4-------
    A||---------------------------|--3---------------------|----------------
    E||---------------------------|------------------------|----------------
    
    
                                      INTRO(parte gtr electrica)
                                                      
    --------|-----------3-----------||---------------------||---------------
    --------|-----------3-----------||---------------------||---------------
    --------|-----------0----------*||---------------------||*--------------
    ---4----|-----------0----------*||---------------------||*--9--------9--
    5-------|-----2-----2-----------||----------5--4--2----||---7--7--7--7--
    --------|--3-----3--3-----------||----------3--2--0----||---------------
    
                                                        
    -----------|--------------------------|------------------------|--------
    -----------|--------------------------|------------------------|--------
    
  • Tablatura
    |-3------------|---------------|-----------------|-------^-3-^--|
    |--3--3--------|-------1-------|-3---------------|-------l-3-l--|
    |---0--0---0---|-----0---0---0-|---0---0---------|-------l-0-l--|
    |--------0---0-|---2-------2---|-----4---4---4---|---2---l-0-l--| ( X 2 )
    |--------------|-3-------------|-----------5---5-|-0---0-l-2-l--|
    |--------------|---------------|-----------------|-------^-3-^--|
    
    
      * Distorcion en las guitarras en esta parte que es como intro igual 1 y 2 *
    
    |----------------------------------------------------------------|
    |----------------------------------------------------------------|  ( Guitarra 1 )
    |----------------------------------------------------------------|
    |-----2-------------------------------------------------------2--|
    |-----2-------------------------------------------------------2--|    las dos guitarras al tiempo
    |-3-2-0---------------------------------------------------3-2-0--|    exacto a como lo escribi
                                                                              X 2
    |----------------------------------------------------------------|
    |----------------------------------------------------------------|
    |--------9----------9-10---------10-7---------7-9----------------|  ( Guitarra 2 )
    
  • Tablatura
     <> - Artificial Harmonic
    
    E-12-15-14-15-17-15-14-15-12--12-15-14-15-17-15-14-15-12----15-14-15-17-12-|
    B--------------------------------------------------------------------------14--------------------|
    G-------------------------------------------------------------------------------------------------|
    D-------------------------------------------------------------------------------------------------|
    A-------------------------------------------------------------------------------------------------|
    E-------------------------------------------------------------------------------------------------|
    
    
    
    
    
    E-----19-17-19-20-19-17-19----19-17-19-20-19-17-19-|
    B--20----------------------20----------------------|
    G--------------------------------------------------|
    D--------------------------------------------------|
    A--------------------------------------------------|
    E--------------------------------------------------|
    
    
  • Tab p/Bajo
    esta version es mas dificil que la original asi que espero 
    que les guste porque tiene partes que la gente cree que un bajista
    no podria tocar. perdon si me confundo o me salto algo. 
    
    
    Intro (0:25) 
    
         (0:13)       (0:20)    esto con el tambor
    G||----------|------------|------------------|
    D||----------|------------|------------------|
    A||----------|------------|------------------|
    E||--3--2--0-|--3--2--0---|--0-0-0-0-0-0-0---|
    
    (0:25) riff 1 (esta parte pueden ir al ritmo de la guitarra 2)
    G||-------------------------------------------------------------------|
    D||----------------------------------------------------3-3-3-3-3-3-3-3|
    A||-2-2-2-2-2-2-2-2-------------------2-2-2-2-2-2-2-2-----------------|
    E||-------------------3-3-3-3-3-3-3-3---------------------------------|
    
    verso (0:58) (tan solo quiero que mi voz..)
    
    G||--------------------------------------|
    D||--------------------------------------|
    A||--7--------------3-------------5------| x4
    E||-------
  • Tab p/Bajo
    Hola como están esta es mi versión de
    “Hasta que tu muerte nos separe”
    la otra tab con todo respeto no me convenció
    al momento de sacarla.
    Espero que les guste esta tab que les prepare. Es muy fácil.
    Quiero mandar saludos a  mis panas del barrio a Rogelio,
    Marcelo, Jean Carlos Y Juan. Otro saludo a mis amigos de la
    Universidad Politécnica Salesiana. Pero uno en especial
    a la carrera de administración.
    Peticiones, sugerencias mi correo carlostoalombo@gmail.com.
    Arriba Mago de oz y Que viva Ecuador.
    
    Intro de guitarra
    Min 00:00
    
    El bajo hace esto en el Min 00:12
    
    G -------------------------
    D -------------------------
    A -------------------------
    E -3-2-0-------------------
    
    Min 00:18
    G ------------------------------------
    D ------------------------------------
    A -------------------------5---5-5-5-7
    E -3-2-0---0-0-0-1---1-1-1------------
    
    Esta parte es de la guitarra.
    El bajo hace esto.
    
    Min 00:25
    G ---------------------------------------------------------------
    D ----------------
  • Piano (Teclados)
    Saludos!
    Aquí les mando una canción ya clasica de Mägo.
    De manera personal, la letra no me gusta mucho,
    pero la tonadita pega!! Es pura voz.
    
    No lo olviden: todos los fa son sostenidos!!!!!
    
    Estrofas:
    sol fa sol la, sol fa sol do
    mi mi mi re, si re fa sol fa re
    sol fa sol fa, sol fa sol sol
    fa fa fa fa fa mi re mi (2 veces)
    
    Estribillos:
     fa fa fa fa sol fa mi fa
    do sol sol sol sol la sol fa sol mi
    mi mi mi mi la sol fa
    fa, sol fa, fa sol fa sol fa mi
    
    Coro:
    mi sol sol sol sol la sol fa sol fa
    mi sol sol sol sol la sol si la
    mi sol sol sol sol la sol fa sol
    mi sol sol la la si si do re
    
    Y ya saben, de ahi se van repitiendo según convenga.
  • +
    ¡Colabora con nosotros!
    Envíanos tu versión de esta canción

Letra de Hasta que tu muerte nos separe
..... p.m.
Uh......................
¡Ooooooooooooooooooh!.............
Tan solo quiero que mi voz
te desespere y robe la razon
implorando que te abrase
eso esperas corazón.
Espero el día muñequita linda
en que tu herida sea tan fuerte
que bañandote en recuerdos
ESTRIBILLO:
Y veras tu linda cara
frente al espejo demacrada
y el dolor será tu amor
masturbando tu mirada
Tan solo quiero verte llorar
he mandado a la muerte a buscar
tan solo quiero oírte gritar
en el infierno te he de encontrar
Tan solo quiero que tu alma
no vuelva a ver la luz del sol
y que llores sangre y miedo
y que pages corazon

p.m.= Palm mute (Apagado con la palma de la mano)



© LaCuerda.net · Aviso Legal · Privacidad