Acordes de Guitarra » M »Mago De Oz » Dime Con Quien Andas (Tab)

Dime Con Quien Andas
Mago De Oz

Letras, Acordes y Tabs para Guitarra, Bajo y Ukulele

  • -----------------------------------------
    
    Intro: LAm, DO, SOL, LAm. (Con arpegio)
    
    LAm
    Si oyes en la noche la voz
    
    Del la soledad y el rumor
    DO                         SOL
    Que ha llegado el tiempo de ser dos,
          LAm
    Aquí estoy.
    
    LAm
    Ten mi mano apriétala bien,
    
    Ten mi hombro apóyate en él
    DO                        SOL
    Y a donde nos lleve el viaje iré,
           LAm
    
  • Am                 C   Dm
    
    Si olles en la noche la voz
    
    de la soledad y el rumor
         C
    que ha llegado el tiempo
            Dm         Am
    de ser vos aqui estoy
    
    
    Ten mi mano aprietala bien
    
    ten mi hombro apoyate en el
      C                          Dm
    y a donde nos lleve el viaje ire
            Am
    contigo ire
    
      Am       C     G       Em
    
  • E.--0-0---0-------------0-0---0-----------0-0---0------------
    B.--1---1---1-0-1-3-1-0-1---1---1-0-1-3-1-1---1---1-0-1-3-1-0
    G.--2-------------------2-----------------0------------------
    D.--2-------------------2-----------------2------------------
    A.----------------------------------------3------------------
    E.-----------------------------------------------------------
    
    E.---------------------------*2
    B.--------1-----3-----0h1h0--
    G.------2---2-----2---------2
    D.----2-------2-----2--------
    A.--0------------------------
    E.---------------------------
    
    VERSO:
    
    Am
    Si oyes en la noche la voz
    Am
    de la soledad y el rumor,
    
  • -----------------------------------------------
    ---5-3-5---3---3----------5-3-5---3---3--------
    ---------5---5---5-4------------5---5---5-4----
    -----------------------------------------------
    -0----------------------0----------------------
    -----------------------------------------------
    
    -----------------------------------------------
    ---5-3-5---3---3----------5-3-5---3---3--------
    ---------5---5---5-4------------5---5---5-4----
    ------------------------0----------------------
    -3---------------------------------------------
    -----------------------------------------------
    
    Riff del verso 1
    (empieza en 0:13)
    X2
    
    ------------------------------------------------------
    -------1------3-0h1p0--------------1------3-0h1p0-----
    
  • Aqui les tengo el solo de Dime con quien andas, no se porque nadie lo habia sacado
    esta muy facil, tambien dedicado a Lurko. Disfruten =D
    
    (3:06) – Solo de guitarra electrica
    E|---------------------------------------------------------------------------------
    B|-----5-5h6-5~--5~--5~----------5-5---5~--5~----5-5h6-5~--5~--5~----------5-5---5-
    G|--7--------------------7-5-4---5-5-----------7-------------------7-5-4---5-5---5-
    D|-----------------------------7-----------------------------------------7-----7---
    A|---------------------------------------------------------------------------------
    E|---------------------------------------------------------------------------------
    
    ------------------------------------------------------------------------------------
    -----5-5-5-5h6-5---5~-------------------------------------------------8-------------
    -----5-5---------7-----7-5-4--4h5-4------5-7-7b9b7p5---5~-------5-7-7b9-9b7p5---5-7-
    ---7--------------------------------5-7-----------
  • +
    ¡Colabora con nosotros!
    Envíanos tu versión de esta canción

Letra de Dime Con Quien Andas
Si oyes en la noche la voz
Del la soledad y el rumor
Que ha llegado el tiempo de ser dos,
Aquí estoy.
Ten mi mano apriétala bien,
Ten mi hombro apóyate en él
Y a donde nos lleve el viaje iré,
Contigo iré.
(Arpegio de Lam) Lam lam.
Y en tu descanso seré el reposo
Y en tu camino seré el andar
Y al sol mandé a avisar a la brisa
que haga saber nuestro caminar
(Intermedio)
No es más rico el que tiene más
Sino el que menos sabe necesitar
Y si tu tienes a alguien junto a ti,
Rico serás.
Una mirada bastará,
Una palabra servirá
Para poner mi corazón en pié.
Aquí está.
Y en tu descanso seré el reposo
Y en tu camino seré el andar
Y al sol mandé a avisar a la brisa
que haga saber nuestro caminar
(Intermedio)
Si oyes en la noche la voz
Del la soledad y el rumor
Que ha llegado el tiempo de ser dos,
Aquí estoy...
Y en tu descanso seré el reposo
Y en tu camino seré el andar
Y al sol mandé a avisar a la brisa
que haga saber nuestro caminar (repite)




[Dime Con Quien Andas chords][Dime Con Quien Andas cifra]
© LaCuerda.net · aviso legal · privacidad · es · en · pt · contacto