Acordes de Guitarra » M »Mago De Oz » A costa da morte (Tab)

A costa da morte
Mago De Oz

  • Tablatura
       G       Am      Em      C      G       Am
    e--3-----3-0-----0-0-----0-0----0-3-----3-0-----0-----0-3-
    B--0---0---1---1---0---0---1---1--0---0---1---1---1-0-1-0-
    G----0-------2-------0-------0------0-------2-----0-0-----
    D---------------------------------------------------------
    A----------0---------------3--------------0-------3-2-0---
    E--3---------------0--------------3---------------------3-
    REPETIR INTRO.
    
    ESTROFA I (CON ACOMPAÑAMIENTO DEL INTRO):
    
    e-----5-7---5-5-7-8-7-10-8-7-5-----5-7---5-8-7-5-----
    B-8-8-----8--------------------8-8-----8---------8---
    G----------------------------------------------------
    REPETIR ESTROFA I.
    
    ESTROFA II:
    
    e--10------7-8-7------10------7-8-7-----5----------
    B-----8-10-------10-8----8-10----------------------
    
  • Tablatura
                              "A COSTA DA MORTE"
                                   Mägo de Oz
    
                                   FINISTERRA
    
      INTRO DEL SOLO: (02:35) Junto con la flauta y el violin!
    
    e|--17-15-14-----------------------------------------------------|
    B|-----------17-15-14----14-15-14--------------------------------|
    G|--------------------16----------16-14-----12-14-16-14-12-------|
    D|---------------------------------------15----------------15~/--|
    A|---------------------------------------------------------------|
    E|---------------------------------------------------------------|
    
    
      SOLO: (02:39)
    
    e|---------7--------7h8-7~--8h10-8-7-------------7--------7h8--7~--------|
    B|-/8-8-10---h8-10~------------------10--/8-8-10---h8-10~--------10~-8~--|
    G|-----------------------------------------------------------------------|
    D|-----------------------------------------------------------------------|
    A|-----------------------------------------------------------------------|
    E|----------
  • Piano (Teclados)
    Ahi les va una de mis preferidas canciones
    de Mägo de oz.
    Creo que excepto el pequeño trozo que me falta
    todo esta bien,
    A COSTA DA MORTE:
    
    Sol la si sol la si do si do re do si la
    Sol la si sol la  do si la
    Sol la si sol la si do si do re do si la
    Sol la si sol la  do si la sol
    
    Re sol la si do si la sol
    Re sol la si do si
    La Re sol la si do si la sol
    Re sol la si do si
    Do re si do re mi re mi fa# mi re do
    Si do re si do re mi mi re do si
    Do re si do re mi re mi fa# mi re do
    Si do re si do re mi mi re do si
    
    Sol re do re mi re do si
    Sol re do re mi re
    sol re do re mi re do si
    Sol re do si la mi
    
    Mi mi mi fa# sol la la la sol fa# sol sol sol la sol mi
    Si si si la sol la la la si do si la sol fa# sol fa# mi
                          (bis)
    
    Do do do si la re la
    Mi mi mi do re si
    Do do re mi re la sol fa# sol la fa#
    Do do do si la re la
    Mi mi mi do re si
    Este cacho no lo he podido sacar
    
    Mi mi mi fa# sol la la la sol fa# sol sol sol la sol mi
    Si si si la sol la la la si do si la sol fa# sol
  • +
    ¡Colabora con nosotros!
    Envíanos tu versión de esta canción





© LaCuerda.net · aviso legal · privacidad · contacto
DINAMICO