Acordes de Guitarra » L »Líbido » Tu Rostro (Tab)

Tu Rostro
Líbido

Letras, Notas, Punteos, Tablaturas y Acordes de Guitarra (Tabs & Chords)

  • Letra y Acordes
    Em      C      Am             C
      En tu rostro se marca el dolor de un sentir
    Em      C      Am             C          Em          C      Am
      es difícil escuchar tu voz en esta oscura traición
    C              Em  C  Am      C      Em   C   Am   C
      Hoy te entiendo más........al verte llorar
    Em C      Am            C            Em  C Am       C
      Tu intentaras fingir pero no puedes reír       no hay forma de actuar
    
    F    Dm       Am            Em          F        C           Em
      Quiero soñar por ti golpear en ti y que te sientas como antes
    
     (Em-C-Am-C)
      Pensarías que no hay mas que andar en tu existir
    
      pero entiende que yo estoy aquí e intentaremos surgir
    
      y dar un paso más
    
    (F-Dm-Am-Em-F-C-Em)
    
  • Tablatura
    ----<-<-<-<-<-<-<-----------<LIBIDO
    ACUSTICA>-<TU
    ROSTRO>------------>->->->->->->----/
     ¯¯¯¯¯¯¯¯¯¯¯¯¯¯¯¯¯¯¯¯¯¯¯¯¯¯¯¯¯¯¯¯¯¯¯¯¯¯¯¯¯¯¯¯¯¯¯¯¯¯¯¯¯¯¯¯¯¯¯¯¯¯¯¯¯¯¯¯¯¯¯¯¯¯¯¯¯¯¯¯¯¯¯¯¯¯
    que tal gente, aca esta el tab de esta canzion, aunque un poco tarde pero pero es k abia
    colgado la Gtr por un rato...pero ya no, y esta canzion va para mi flaca, te amo susana.
    ...por seaca esta cancion no la canta salim sino jeffry, a otra cosa,,, cambie de correo
    ya no es bacoman_1@hot.., cualkier sugerencia de esta canzion o la de 'no sera lo mismo
    sin ti' la mandan a sunakano26@hotmail.com   ok?? todo listo... ahi va:
    
    |-p-a-r-a--v-e-r--m-e-j-o-r--s-t--t-a-b--u-t-i-l-i-z-e-n--c-u-a-l-k-i-e-r-a--d--s-t-a-s-|
    |-f-u-e-n-t-e-s--'c-o-u-r-i-e-r--n-e-w'--ó--'l-i-n-e-p-r-i-n-t-e-r'--n--t-a-m-a-ñ-o--8--|
    
    
    1er VERSO:
    ~~~~~~~~~~
        Em                      C-G                     Am
                         en tu rostro               se marca el dolor      de tu sentir
     e|-------------0-----------------------3-----------------------0-----0-----0-----0-----|
     B|----------0-----0-----------------1-----1-----------------1----1-----1-----1-----1---|
    
  • Tab p/Bajo
    CORO:
    
    Quiero soñar por ti golpear en ti
    G-------------------------------------------------------------------
    D-------------------------------------------------------------------
    A--------5-5555--------7-7777---------------------------------------
    E-1-1111--------5-5555----------------------------------------------
    
    Y que te sientas como antes
    G-------------------------------------------------------------------
    D-------------------------------------------------------------------
    A--------3-3333-----------------------------------------------------
    E-1-1111--------3---------------------------------------------------
    
    LUEGO
    (REPITE CORO 2 VECES)
    Y DESPUÉS:
    G-------------------------------------------------------------------
    D-------------------------------------------------------------------
    A-7-7777-7777-7--3-3333-3333-3--------------------------------------x4
    E-------------------------------------------------------------------
    
    Más allá del cristal que transforma tu mirar…
    G-------
  • +
    ¡Colabora con nosotros!
    Envíanos tu versión de esta canción

Letra de Tu Rostro
En tu rostro se marca el dolor de un sentir
es difícil escuchar tu voz en esta oscura traición
Hoy te entiendo más........al verte llorar
Tu intentaras fingir pero no puedes reír no hay forma de actuar
Quiero soñar por ti golpear en ti y que te sientas como antes
Pensarías que no hay mas que andar en tu existir
pero entiende que yo estoy aquí e intentaremos surgir
y dar un paso más
Quiero soñar por ti golpear en ti. Y que te sientas como antes
quiero soñar por ti golpear en ti
cuando requieras de alguien...y despertar
Mas allá del cristal que transforma tu mirar
reconozco tus deseos de actuar
recobrar tu lugar y esa inmensa libertad te alojabas en tu palpitar
Quiero soñar por ti golpear en ti. Y que te sientas como antes
quiero soñar por ti golpear en ti cuando requieras de alguien
Los dolores que más daño dan son los del alma
no permitas que te venza el mal
Hay un Em que no se si estara bien es en el coro



© LaCuerda.net · Aviso Legal · Privacidad