Acordes de Guitarra » L »Líbido » En esta habitación (Tab)

En esta habitación
Líbido

Letras, Acordes y Tabs para Guitarra, Bajo y Ukulele

  • F#m          D          A           E
     e|-2--      e|-2--     e|-0--      e|-0--
     b|-2--      b|-3--     b|-2--      b|-0--
     g|-2--      g|-2--     g|-2--      g|-1--
     D|-4--      D|-0--     D|-2--      D|-2--
     A|-4--      A|-0--     A|-0--      A|-2--
     E|-2--      E|-x--     E|-x--      E|-0--
    
    INTRO
                  e -----7--------7-----7--
                  b --7-----7--------7-----
                  g -----------9-----------
                  d -----------------------
                  A -----------------------
                  E -----------------------
    
    solo 1:
    
    e|-----------------------12----14--14---12----
    b|--------------------------------------------
    
  • Fa# : 244222
    Re+ : xx0232
    La+ : 002220
    Mi+ : 022100
    
    Intro : 7/2 7/1 7/2 9/3 7/1 7/2 7/1
    Punteo :14/3 11/3 11/3 14/3 11/3 14/3
            12/1 12/1 14/2 14/1 14/1 12/1 (4 veces)
    FA#   RE    LA    MI 
    Tanto Tanto Tanto
    FA#   RE    LA    MI 
    Tiempo al Tiempo
    FA#   RE    LA    MI 
    Tanto Tanto Tanto
    FA#   RE    LA    MI 
    Tiempo
    FA#   RE    LA    MI 
    Estoy sintienedome solo..en este corazon
    FA#   RE    LA    MI 
    Silencios de odio...
    
  •   E-----------------    E-------0----2--
      B-----------------    B---------2--2--
      G-2h4-4-2---------    G---2--------2--
      D---------2-2h4---    D-2---2------4--
      A-----------------    A------------4--
      E-----------------    E------------2--
             3                     4
      E--------0--------    E-----------0---
      B----2-----3-2----    B-------2-----2-
      G--2---2-------2--    G---2-----2-----
      D-2---------------    D-2---2---------
      A-----------------    A---------------
      E-----------------    E---------------
    
      Intro
    
      E-----------------------
      B----12------12----12---
      G-11----11-9----11------
      D-----------------------
    
  • --VERSION COMPLETA-- todo el acompañamiento de 1a guitarra.
    
    Simbología-----------------------
    -12h14-    hammer on. Tocar una nota únicamente pisándola,
               sin necesidad de utilizar la mano derecha.
              (pisar en el traste 14 mientras suena el 12)
    -14p12-    pull off. Dejar de pisar la cuerda haciendo el dedo
               hacia abajo, de una manera que quede sonando la nota
               más baja. (colocar el dedo el traste 12 y soltar el 14)
    -12g14-    Deslizar el dedo sobre la cuerda, después de tocar
               la primera nota (12).
    -(12)--    nota fantasma (se toca muy suave)
    -12~-      Prolongar el sonido.
    -12v-      Mover horizontalmente el dedo que pisa la cuerda.
    -12b-      Jalar la cuerda perpendicularmente.
    -12br-     bend and release (jalar y Soltar)
    
    con tablatura y cifrado ejem. 2/5 - Cuerda 2, Traste 5
    
    Rasgueo
    
  •     F#m         D          A           E
     \======/   \x=====/    \x=====/    \======/
      ||||||     ||||||      ||||||      |||o||
      oooooo     |||o|o      ||ooo|      |oo|||
      ||||||     ||||o|      ||||||      ||||||
      |oo|||     ||||||      ||||||      ||||||
    
       F#m          D          A           E
     e|-2--      e|-2--     e|-0--      e|-0--
     b|-2--      b|-3--     b|-2--      b|-0--
     g|-2--      g|-2--     g|-2--      g|-1--
     D|-4--      D|-0--     D|-2--      D|-2--
     A|-4--      A|-0--     A|-0--      A|-2--
     E|-2--      E|----     E|----      E|-0--
    
    INTRO:
                   -------------------
                   ----12----12--12---
                   --11--11-9--11-----
                   -------------------
    
  •   F#m   D   A   E
    e|-2----2---0---0---|   Estos son los acordes de toda la cancion
    B|-2----3---2---0---|   la segunda guitarra solo se repite el
    G|-2----2---2---1---|   el circulo una y otra y otra vez.. asta morir
    D|-4----0---2---2---|   y la primera ya ace los riffs ,arpegios,etc..etc
    A|-4----0---0---2---|
    E|-2----X---X---X---|
    
    INTRO(acustica):
    
    e|---7---9--7---7-|
    B|-7---7------7---|
    G|----------------|
    
    INTRO(original):
    
    e|---7---9--7---|
    B|-7---7------7-|
    G|--------------|
    
    
  • D/-------------------
    A/-------------------
    E/-------------------
    
    *Riff 1*
    e/------------------------12--14--14-12-----------------------
    b/------------------------------------------------------------
    g/--14--11--14--11-11--14---14--------------------------------
    D/------------------------------------------------------------
    A/------------------------------------------------------------
    E/------------------------------------------------------------
    
    e/------------------------12--14/13/12------------------------
    b/------------------------------------------------------------
    g/--14--11--14--11-11--14-------------------------------------
    D/------------------------------------------------------------
    A/------------------------------------------------------------
    E/------------------------------------------------------------
    
    *Riff 2*
    
  • Momentos de agobio
    G |--------------------|
    D |--------------------|
    A |------5554----------|
    E |--2-2------5555555--|
    
    Luego continúen con la base hasta la siguiente modificación
    
    Deseos de hombre (Nota 10=10)
    G |--------------------------|
    D |---------------76---------|
    A |------5554---7----7-9109--|
    E |--2-2------5--------------|
    
    Base
    
    Entrada al Solo
    
    G |-------------------------|
    D |-------------------------|
    
  • +
    ¡Colabora con nosotros!
    Envíanos tu versión de esta canción
  • Tutorial
    HD
    Como tocar - En esta habitacion de Libido - Tutorial Guitarra (HD)
    5:07
  • Tutorial
    HD
    En esta habitación - LIBIDO (Tutorial Gt1)
    4:57
  • Tutorial
    HD
    En esta habitación - LIBIDO (Tutorial Gt2)
    4:53

Letra de En esta habitación
e|-2-- e|-2-- e|-0-- e|-0--
b|-2-- b|-3-- b|-2-- b|-0--
g|-2-- g|-2-- g|-2-- g|-1--
D|-4-- D|-0-- D|-2-- D|-2--
A|-4-- A|-0-- A|-0-- A|-2--
E|-2-- E|-x-- E|-x-- E|-0--
2 veces
Tanto Tanto Tanto,
Tiempo al Tiempoo
Tanto Tanto Tanto,
Tiempoo..
Estoy sintiendome solo, en este corazón
Silencios de odio
Estoy volviendo yo a verte, en esta solución
Momentos de agovio óh.
Tanto Tanto Tanto, |
Tiempoo.. |
|
(Estoy cayendo en tu mente, en toda tu pasión
En esta tela de araña)
Estoy rozando tu vientre, en mi imaginación
Deseos de hombre
Recuerdo tu nombre (en esta habitación |
Tus labios tus besos) | EL DE ACÂ ABAJO.
Recuerdo tu nombre en esta habitación |
Tu cuerpo tu anhelo |
( 2 veces )
Acá se toca el 'SOLO 1'
Recuerdo (recuerdo)... ¡en esta habitación!
Tus labios tus besos
Recuerdo tu nombre en esta habitación
Tu cuerpo tu anhelo
Tanto Tanto Tanto,
Tiempoooo...
Tanto Tanto Tanto,
Tiempo...
Tanto Tanto Tanto, |
En esta habitación | CON 'SOLO 1'
Tanto Tanto Tanto, |
En esta habitación |
'SOLO 2'
FIN!!!!!!!
SI TIENEN ALGUN TIPO DE RECLAMO O DUDA,
o a capo1214@hotmail.com
Y QUE VIVA EL ROCK PERUANO!!!!!!!!!!!!!!




[En esta habitación chords][En esta habitación cifra]
© LaCuerda.net · aviso legal · privacidad · es · en · pt · contacto