Acordes de Guitarra » L »Líbido » Tres (Tab)

Tres
Líbido

Letras, Acordes y Tabs para Guitarra, Bajo y Ukulele

  • MIm LA DO SOL RE (2v)
    
    MIm       LA
    Hoy que empiezo a extrañar
    DOm     SOL
    Donde estarás
    SIm                   RE
    Hoy que busqué en tu lugar
    MIm       LA       DOm
    Amiga no supe entender
    SOL
    Perdóname
    SIm               RE
    Volveremos a intentar
    
    Hoy que el tiempo nos cambió
    Dónde andarás
    Te necesito encontrar
    Después, desaparecer
    Tal vez lejos de mí
    
  •        Em                    A   Cm
          Donde estaras
                     G
          Hoy que busque en tu lugar 
            Bm                 D
          Amiga no supe entender
             Em              A     C
          perdoname
               G  
          volveremos a intentar
            Bm               D
    
          Punteo:
          Em , G, C, G, D - Em, A, C, Em, Ebm
    
       1) Hoy que el tiempo nos cambio
          donde andarás
          te necesito encontrar
          después desaparecer
          tal vez lejos de mi
    
  • --------------------------------*
    
    =======================================================================================
    
    a tantos mails que me pidieron esta canción, aquí les va lo que saqué, no estoy seguro seguro
    de algunas notas (pueden ser disonantes), si encuentran notas mejores, háganmelo saber;
    LES DESEO FELIZ NAVIDAD Y FELIZ 2001... ya ahora siii a tocar :) !!
    
    ----------------------------------------------------------------
    1.- INTRO.- Acordes utilizados: Em - G - C - Cm - F# - E5 - D#5
    -----------------
    
         Em   G    C    G    F#      Em   G     Cm   E5   D#5   
    E||--7----7----3----3---------|--7----7-----3--------------|
    B||--8----8----5----3---------|--8----8-----4--------------|
    G||--9----7----5----4----3----|--9----7-----5----9----8----|
    D||--9----9----5----5----4----|--9----9-----5----9----8----|
    A||--7----10---3----5----4----|--7----10----3----7----6----| <-----|
    E||--0----7---------3----2----|--0----7--------------------|       |
                                                                       |
    
  •    Em        G                      C          G         D
    E|--------------------2/5-5-5-5-5-5/2-2-2-2-2--2-2-2-2-2-2-2-2-2-2--|
    B|--------------------2/5-5-5-5-5-5/2-2-2-2-2--2-2-2-2-2-3-3-3-3-3--|
    G|-------------------------------------------------------2-3-3-3-3--|
    D|-2-2-2-2-2--0-0-0-0-----------------------------------------------|
    A|-2-2-2-2-2--2-2-2-2-----------------------------------------------|
    E|-0-0-0-0-0--3-3-3-3-----------------------------------------------|
    
       Em        A                      C          Em*       D#m
    E|-----7-br------7-br-----------------------------------------------|
    B|-----10br------10br-----------------------------------------------|
    G|---------------------------------------------9-9-9-9-9-8-8-8-8-8--|
    D|---------------------------------------------9-9-9-9-9-8-8-8-8-8--|
    A|---------------------------------------------7-7-7-7-7-6-8-8-8-8--|
    E|------------------------------------------------------------------|
    
    
    Arpegio 1:
    E|-----------------------------|
    B|-------0-----------2h3p2-----|
    
  • E||---------------|
    B||---------------|
    G||---------------|
    D||--------0------|
    A||--0--2---------|
    E||---------------|
    
    Em, G, C, G, D, Em, A, C, Em, Ebm
    (estos dos ultimos es combeniente hacerlo asi)
                                      779987 y 668876
    
    Em                     A
    Hoy que empiezo a extrañar
    Cm           G
      Donde estaras
    Bm                      D
    Hoy que busque en tu lugar
    Em                  A
    Amiga no supe entender
    C        G
    
  • Em:022000
    G: 355433 y 320033
    A: x02220
    Bm:x24432
    Cm:x35543
    D: 200232
    E5:x7999x
    D#5:x6888x
    
    Free Time: Tocas lo que se te de regalada la gana
    
    Intro:
    
    E|------------------------3/5-5\3-3-3-3-2-2--|
    B|------------------------3/5-5\3-3-3-3-3-3--|
    G|-------------------------------------------|
    D|----------2-2-2-2-0-0-0--------------------|
    A|-------5--2-2-2-2-2-2-2--------------------|
    E|--/5-7----0-0-0-0-3-3-3--------------------|
     |          Em5     G5      C5      G5  D    |
    
  • bueno como lo prometi aki esta el tab d bajo
    
    
    INTRO:
    G-----------------------------------------------------|
    D----------0------------------------------------------|
    A--0---2----------------------------------------------|
    E-----------------------------------------------------|
    
    G-----------------------------------------------------|
    D-----------------------------------------------------|
    A-----------------------2-3-3-3-----------------------|
    E---0-0-0-0---2-3-3-3-------------3-3-3-2-2-2---------|
    
    G-----------------------------------------------------|
    D---------------------------------2-2-2-2-1-1-1-1-----|
    A-----------------------2-3-3-3-----------------------|
    E---0-0-0-0---5-5-5-5---------------------------------|
    
    1RA ESTROFA:
    
    HOY QUE TE EMPIEZO A EXTRAÑAR......
    
    G------------------------------------------------------------|
    D-------------------------------------------------0-0-0-0----|
    A-----------------------3-3-3-3-----------2-2-2-2------------|  x2
    E---0-0-0-0---5-5-5-5-----
  • BUENO OTRA VEZ DECIDI CORREGIR
    LA TABLATURA ANTERIOR YA QUE TENIA
    BASTANTES ERRORES PERO ESTA ME SALIO
    BIEN CHVR  XD..
    INTRO:
    
    E|---5--7----------------------------|
    A|---------5-------------------------|
    D|-----------------------------------|
    G|-----------------------------------|
    
    E|-000-00-333-5--------5-3-222-0000-----|
    A|--------------2-333-2-----------------|
    D|--------------------------------------|
    G|--------------------------------------|
    
    E|-3333-5---------5----------------|
    A|--------2-3333-2--7(x7)-6(x6)----|
    D|---------------------------------|
    G|---------------------------------|
    
    Verso1: Hoy que empiezo a extrañar……
    
    E|------5------------------------|
    A|-7^-6^--2-2^-------------------|
    D|-------------5-555-------------|
    G|-------------------------------|
    
    Hoy que busce en tu lugar..
    
    E|---------------0000000-------------333-5---|
    A|-2-222-5h7-5555--------------3---3---------|
    D|----------------------1h2-1-0-5-0----------|
    G|-------------------------------------------|
  • +
    ¡Colabora con nosotros!
    Envíanos tu versión de esta canción
  • Tutorial
    HD
    Tres - LIBIDO (solos)
    4:02
  • Tutorial
    HD
    Tres - LIBIDO (acordes)
    4:02

Letra de Tres
Hoy que empiezo a extrañar
Donde estarás
Hoy que busqué en tu lugar
Amiga no supe entender
Perdóname
Volveremos a intentar
Hoy que el tiempo nos cambió
Dónde andarás
Te necesito encontrar
Después, desaparecer
Tal vez lejos de mí
Sigo guardando el dolor
Ámame, miénteme, tócame
Piensa en mí
Extráñame, abrázame
Ahhhh...
Ahhhh
Ahhhh
Después de un día sin fin
Puedo morir
Dime perdí la razón
Oh, oh, oh, ohhhhh.....
Ámame, miénteme, tócame
piensa en mí
Extráñame, abrázame
ohhhh, ohhhh
Ámame, miénteme, tócame
Piensa en mí
Extráñame, abrázame
Ohhhh...




[Tres chords][Tres cifra]
© LaCuerda.net · aviso legal · privacidad · es · en · pt · contacto