Acordes de Guitarra » L »Líbido » Líbido (Tab)

Líbido
Líbido

Letras, Acordes y Tabs para Guitarra, Bajo y Ukulele

  • Em y C                       y esta se usa en las notas G y B7
    
    e||---^------^------       e||-|---|---^------^---|---^---|----
    B||---|------|------       B||-|---|---|------|---|---|---|----
    G||---|------|------       G||-|---|---|------|---|---|---|----
    D||---|------|------       D||-|---|---|------|---|---|---|----
    A||---|------|------       A||-|---|---|------|---|---|---|----
    E||---|------|------       E||-V---V---|------|---V---|---V----
    
    
    aqui les va el intro y lo de mas es pan comido
    
    
    e||----------------------------|
    B||----------------------------|
    G||---0------0------3------2---|<-  Se repite tres veces
    D||--2-2----2-2----2-2----1-1--|
    A||---------------3------2-----|
    E||-0------3-------------------|
    
    
  •      Em       G       ¿?       B7
       E/-0-/   E/-3-/   E/-0-/  E/-0-/
       A/-2-/   A/-2-/   A/-3-/  A/-2-/
       D/-2-/   D/-0-/   D/-2-/  D/-1-/
       G/-0-/   G/-0-/   G/-3-/  G/-2-/
       B/-0-/   B/-2-/   B/-0-/  B/-0-/
       E/-0-/   E/-2-/   E/-3-/  E/-2-/
    
    
    espero que se entienda
    
    E/--0-----12*****2***4-------------------/  dejar sonar el bajo
    A/---------------------------------------/ y estirar desde el traste 
    D/---------------------------------------/ 12 hasta el 2 luego bajar al 
    G/---------------------------------------/ 4
    B/---------------------------------------/
    e/---------------------------------------/
    
    * (Jalar la cuerda) 
    
    
  • (Em,G,C,B)
    Me tienes contigo y no sabes lo que aprendí(Em,G,C,B)
    
    A llorar sin lágrimas    a no creer en los sueños
                  Em     G  C        B               Em  G
     A no envolverme en tus beesos ni en tus caricias
    C           B            Em          G      C
    Porque todas son mentiraaas
            B             Em    G
    Heee...y te quito las ropas       y yo entro en tu cuerpo
     C            B        Em* G*   C*     B*
              Y juntando las almas tu cuerpo y el mío
    Em* G*   C*    B*        Em*       G*          C*
    Se envuelven en  LIBiDOOOOOO
           B*       Em* G*  C* B*
    
    1º||------|------|--0---|--0----|
    2º||------|------|------|-------|
    3º||---0--|---0--|---3--|---2-0-|
    4º||--2-2-|--0-0-|--2-2-|--1----|
    
  •           E5
    e)--(*12)------------------------------------------¡
    B)-------------------------------------------------¡
    G)-------------------------------------------------¡DISTOR
    D)--------2----(0)/ 2/4…++--------------2---------¡
    A)--------2----(0)/ 2/4…++------------------------¡
    E)--------0----(-2)/0/2…++-----------------12¬----¡
              =----(-2)-(+2) (++)=acople
              =Con palanca
    RIFF:1
        E5      G5        C5        B5
    e)--------------------------------------------¡
    B)--------------------------------------------¡
    G)*-------------------5-5-5-5---4-4-4-4------*¡DISTOR
    D)*-0-2-2---5-5-5-0---5-5-5-5---4-4-4-4------*¡
    A)--0-2-2---5-5-5-0---3-3-3-3---2-2-2-2-------¡
    E)--0-0-0---3-3-3-0---------------------------¡
    
    RIFF:2-A
        E         G         C         B
    
  •      E5     G5        C5     B5
    1º||------------------------------------|
    2º||------------------------------------|
    3º||-----------------5-5---4-4-4-4------|
    4º||-2-2---5-5-5-----5-5---4-4-4-4------|
    5º||-2-2---5-5-5-----3-3---2-2-2-2------|
    6º||-0-0---3-3-3------------------------|
    
    
    Intro:
    
    1º||---------|---------|----------|----------|
    2º||---------|---------|----------|----------|
    3º||------0--|------0--|------3---|-------2--|
    4º||----2---2|----2---2|----2----2|-----0---0|
    5º||--0------|--0------|--3-------|---2------|
    6º||---------|---------|----------|----------|
    
    1º||---------|---------|----------|----------|
    2º||---------|---------|----------|----------|
    
  • A LA PRIMERA NOTA QUE SUENA CON LA GUITARRA.
    
    
    G|---------------------------------------------------------------------
    D|---------------------------------------------------------------------
    A|---------------------------------------------------------------------
    E|---O-----------------------------------------------------------------
    
    G|-----------------------------------------------------------------------
    D|-----------------------------------------------------------------------
    A|-----------------------------7-7--10-10-10-10--3-3--2-2-2-2------------
    E|--0-0--3-3-3-3--8-8--7-7-7-7-------------------------------------------
    
    VERSO 1
    G|-------------------------------------------------9---------------------
    D|---------------------------------------------9-10-10-9-12-9------------
    A|----------------------------------7-7-9-10-10--------------10----------
    E|--0-0-0-0-3-3-3-3-8-8-8-8-7-7-7-7--------------------------------------
    
    G|------------------------------------------------------------
  • HOLA SOY JEFERSON BUENO DECIDI CORREGIR
    LA TABLATURA ANTERIOR YA QUE TENIA MUCHOS
    ERRORES PS AHORA ESTA SI ESTA BIEN XD
    
    INTRO:( Después de la batería)
    E|-----0--------------------------------------------------------|
    A|--------------------------------------------------------------|
    
    E|-00--33-------------------------------------------------------|
    A|--------33--22-----777--9-10-10------------------------9------|
    D|--------------------------------7--9-10--10---10-9--9---------|   x2
    G|-------------------------------------------9-------7----------|
    
    VERSO:1 (nos vimos de nuevo ….)
    
    E|-00--33---------------------------8-8---8-7--7--5-------------|
    A|--------33--22--7-0----------10-0-----7-----5-----------------|
    D|--------------------9-0--7-0----------------------------------|
    G|--------------------------------------------------------------|
    
    …..Me tienes contigo
    
    E|-00--33-------------------------------------------------------|
    A|--------33--22-----777--9-10-10----------------------
  • LIBIDO - libido
    
    Drum tab echo por Airton %/(AIR_VP HOTMAIL.COM)
      
    
    
    Intro
    
       (O.O8)	                         
     C --------------------------|---x----------x-----------|-x------------------------|
     H --------------------------|--------------------------|------------------------x-|
    Hp -----------------x-x-x----|-----x-x-x-x----x-x-x-x---|---x-x-x-x----x-x-x-x-----|
     F --------------------------|--------------------------|--------------------------|
    F2 --------------------------|--------------------------|---------------------o-o--|
     S --------------------------|------o-o-o-o----o-o-o-o--|----o-o-o-o----o-o-oo-o---|
     B -----------------------o--|---o-o-----o--o-o---------|-o-o-----o--o-o-----------|
    
    Verse
    
                                                               ...nos vimos de... 
     C --------------------------|--------------------------|--------------------------|
    Hp ----x----x----x-----------|----x----x----x-----------|----x----x----x-----------|
     F ----------
  • +
    ¡Colabora con nosotros!
    Envíanos tu versión de esta canción
  • Tutorial
    HD
    Libido - LIBIDO (Tutorial Gt1)
    4:55
  • Tutorial
    HD
    Libido - LIBIDO (Tutorial Gt2)
    4:55

Letra de Líbido
aqui les va el intro y lo de mas es pan comido
Nos vimos de nuevo, pensaste en volver a mí
Me tienes contigo, no sabes lo que aprendí
A llorar sin lágrimas
a no creer en los sueños
a no envolverme en tus besos, ni en tus caricias
porque todas son mentiras
Y te quito las ropas
y yo entro en tu cuerpo
y juntando las almas, tu cuerpo y el mío
se envuelven en libidoooooo
Terminó tu sueño
de ser la dueña de mí
Empieza tu infierno
tu premio a lo que aprendí
A llorar sin lágrimas
a no creer en los sueños
a no envolverme en tus besos, ni en tus caricias
porque todas son mentiras
Y te quito las ropas
y yo entro en tu cuerpo
y juntando las almas, tu cuerpo y el mío
se envuelven en libidoooooohhh
Y te quito las ropas
y yo entro en tu cuerpo
y juntando las almas, tu cuerpo y el mío
se envuelven en libidoooooohhh
Y te quito las ropas
y yo entro en tu cuerpo
y juntando las almas, tu cuerpo y el mío
se envuelven en libidoooohhh
un saludo para los patazas de la unidad de puno de GUIDO




[Líbido chords][Líbido cifra]
© LaCuerda.net · aviso legal · privacidad · es · en · pt · contacto