Acordes de Guitarra » L »Líbido » Hembra (Tab)

Hembra
Líbido

Letras, Acordes y Tabs para Guitarra, Bajo y Ukulele

  • intro:C#m G#7 E A C#m G#7
    
    C#m     G#7      E  
    Hembra nunca es tarde
     A         C#m       G#7
    Para alcanzar los sueños
    C#m       G#7  E    F#       A
      Siempre tuya la eternidad
    
    C#m G#7 E A C#m G#7
    
    C#m           G#7        E
    Mientras no puedas hablar
            A         C#m    G#7
    Ni mostrar la verdad,    siente
    C#m     G#7   E     F#        C#m     G#7
       Entrar     y verte llorar   al verme
    F#             A            B
      ¡No ocultes más tus sentimientos!  
    
    
  • INTRO:C#m G# E F# C#m G#
    
    C#m    G#       E
    Hembra nunca es tarde
          F#     C#m       G#
    Para alcanzar los sueños
    C#m      G# E     F#    C#m G#  C#m G# E F# C#m G#
    Siempre tuya la eternidad
    
    C#m    G#           E
    Mientras no puedas hablar
    F#             C#m       G#
    Ni mostrar la verdad, siente
    C#m  G# E  F#       C#m      G#
    Entrar y verte llorar al verme
    E5           F#5             G#5
    ¡No ocultes más tus sentimientos! 
    C#m    G#    E    F#
    Ahora comprendo cuál es tu sol
    C#m    G#       E                   F#
    
  •  (Am   E  C  F  -  Am  E   C   F )estos acordes van junto
                                      con la tablatura
    
       capotraste en el cuartro traste
    
       e-5-0-------------------------------0-5------------
       B--------1--1b3---3B1---1-------1------------------
       G---------------------2-----1-2---2----------------
       D--------------------------------------------------
       A--------------------------------------------------
       E--------------------------------------------------
    
       e-8-5--------------------------------------0-5-----
       B-----8-5-3b5b3------------------------1-----------
       G---------------5-5b7--5-7b9-2-5---1-2---2---------
       D--------------------------------------------------
       A--------------------------------------------------
       E--------------------------------------------------
    
        Am         E     C
    
  •   B= bend
     pb= pre-bend (bend y luego regresar)
      x= tocar la cuerda por encima
     ()= nota fantasma
    
    GUITARRA I
    
    INTRO_00:12
    
    E|-9--------------------------------------9~|
    B|---9-----------------------------9~----9--|
    G|-----9~---9h11~--xx-11p9-------9~--9~-----|
    D|-----------------xx------11~--------------|
    A|------------------------------------------|
    E|------------------------------------------|
    
    E|-12-9-----------------------------------(9)
    B|-----12-9----------------------------9--(9)
    G|----------11pb-9-11~---9-11p9---9~--9-9---|
    D|------------------------------11----------|
    
  • Libido - Hembra
    
    Intro
    
    En bajo entra a los 33 segundos con la siguiente nota muy suave
    
    G-------------------
    D-------------------
    A---0---------------
    E-------------------
    
    G-------------------------------------------------------
    D-------------------------------------------------------
    A---4-4-2-------7-7-6-------4-4-2-------6/11-11-6-11----
    E---------4-----------5-----------4---------------------
    
    Verso
    
    Mientras no puedas hablar.......
    
    G----------------------------------------------------------
    D----------------------------------------------------------
    A---4-4-2------------6-7-------4-4-2-----------------------
    E---------4-----0-0------------------4----44444444444------
    
    G-------------------------------------------------------------
    D-------------------------------------------------------------
    A---4-4-2-------7---6-7--------4-4-2------6/11-11--6/11-6/11--
    E---------4-------7------------------4------------------------
    
    Pre-Coro
    
    No ocultes mas tus sentimientos......
    
    G------------
  • +
    ¡Colabora con nosotros!
    Envíanos tu versión de esta canción

Letra de Hembra
Hembra nunca es tarde
Para alcanzar los sueños
Siempre tuya la eternidad
Mientras no puedas hablar
Ni mostrar la verdad, siente
Entrar y verte llorar al verme
¡No ocultes más tus sentimientos!
Ahora comprendo cuál es tu sol
Pretendo un encuentro en constelación
Te dejo la luna por si no estoy
Y un cuarto menguante en señal de amor
Malditos miedos, trastornan
Violentan tu voz hiriente
Entrar y verte llorar al verme
¡No ocultes más tus sentimientos!
¡No ocultes más tus sentimientos!
CORO(X2)
señal de amor
señal de amor

eso es todo muy facil y espero q la disfruten
no dejen de apoyar el rock peruano




[Hembra chords][Hembra cifra]
© LaCuerda.net · aviso legal · privacidad · es · en · pt · contacto