Acordes de Guitarra » L »Líbido » Como un perro (Tab)

Como un perro
Líbido

Letras, Acordes y Tabs para Guitarra, Bajo y Ukulele

  •             G =320003
        Cdim7(II) =002323
                C =032013
               Em =022000
    
    Inicio: G Cdim7 |C |Em | G | Cdim7 |(Cdim7 5traste) |C |Em
    VERSOS:
    
    G                   Cdim7(II)
    Discutes sin razón quieres llevar el control
            C                         Em
    en tus manos no, no, no voy a bailar
       G                      Cdim7(II)
    Me haces sentir mal luego yo pido perdón
           C                                 Em
    siendo tú la única culpable de la situación
    
    G |Cdim7(II) |(Cdim7 5traste) |C |Em
    turutuuuuu
    
    
  •       G     ?  ??   C     Em     E5*  E5   D5   C5
    e|----3-----3---6---3-----3--------------------------|
    B|----3-----2---5---2-----0--------------------------|
    G|----0-----3---6---0-----0-----------9----7---5-----|
    D|----0-----2---5---2-----2------2----9----7---5-----|
    A|----2-----0---0---3-----2------2----7----5---3-----|
    E|----3-------------------0------0----x----x---x-----|
    
    
    Intro:    Se tocan dos compases de: [ G - ? - C - E ]
              recién en el segundo compas entra la primera
              guitarra, dando un solo toque. La segunda guitarra
              va a estar repitiendo las mismas notas toda la
              canción.
    
              El bajo antes de empezar Salim a cantar,
              para pasar a Sol, hace esto:
        G|--------------------------|
        D|--0h2-2-------------------|
        A|--------2-0---------------|
    
  • Riff 1                Riff 2(cambiar de nota A nota)
    1º||-------------|         1º||-3--         1º||--6-
    2º||-------------|         2º||-2--         2º||--5-
    3º||-------------|     D*  3º||-3-- ==> D** 3º||--6-
    4º||--1/2-0------|         4º||-2--         4º||--5-
    5º||--------2-0--|         5º||-0--         5º||--x-
    6º||-------------|         6º||-0--         6º||--x-
    
    IntrØ:
     G , D* , C* , Em*
     Riff 1
     G , Riff2 , C*, Em*
    
    Discutes sin razón, quieres llevar el control
       G                         D*
    En tus manos No…. No voy a bailar
           C*                     Em*
    Me haces sentir mal luego yo pido perdón
        G                     D*
    Siendo tú la única culpable de la situación…
    
  • Riff 1                Riff 2(cambiar de nota A nota)
    1º||-------------|         1º||-3--         1º||--6-
    2º||-------------|         2º||-2--         2º||--5-
    3º||-------------|     D*  3º||-3-- ==> D** 3º||--6-
    4º||--1/2-0------|         4º||-2--         4º||--5-
    5º||--------2-0--|         5º||-0--         5º||--x-
    6º||-------------|         6º||-0--         6º||--x-
    
    IntrØ:
     G , D* , C* , Em*
     Riff 1
     G , Riff2 , C*, Em*
    
    Discutes sin razón, quieres llevar el control
       G                         D*
    En tus manos No…. No voy a bailar
           C*                     Em*
    Me haces sentir mal luego yo pido perdón
        G                     D*
    Siendo tú la única culpable de la situación…
    
  •       G     ?     C     Em     E5*  E5   D5   C5
    e|----3-----3-----3-----0--------------------------|
    B|----3-----2-----2-----0--------------------------|
    G|----0-----3-----0-----0-----------9----7---5-----|
    D|----0-----2-----2-----2------2----9----7---5-----|
    A|----2-----0-----3-----2------2----7----5---3-----|
    E|----3-----------------0------0----x----x---x-----|
    
    
    Intro:    Se tocan dos compases de: [ G - ? - C - E ]
              recién en el segundo compas entra la primera
              guitarra, dando un solo toque. La segunda guitarra
              va a estar repitiendo las mismas notas toda la
              canción.
    
              El bajo antes de empezar Salim a cantar,
              para pasar a Sol, hace esto:
        G|--------------------------|
        D|--0h2-2-------------------|
        A|--------2-0---------------|
    
  • Sí, seguro muchos esperaban el verdadero tab de bajo de
    "Como un Perro".Aquí se los presento.
    
    INTRO:
    
    Después de los acordes la guitarra, entra el bajo haciendo esto,
    a manera de entrada:
    
    G--------------                   G-----------------     G-----------------
    D---2-0--------                   D---0/2-0---------     D---1/2-0---------
    A-------2-0----   O si prefieren  A --------2-0-----  O  A--------2-0------
    E-----------3--                   E-------------3---     E-------------3---
    
    Luego viene el ritmo que se hará en todas las estrofas
    
    G--------------------------------------------------------------------------
    D--------------------------------5-7----------------------0h2-2-2-2-0------
    A-------------------5----3-5-5-7------3----0-3-3-3-5-7----------------2-0--
    E--3----0-3-3-3-5-7------------------------------------0------------------3...
    
    Eso en todas las estrofas y coro.
    Hasta que viene la parte después del segundo estribillo que, evidentemente,
    cambia.
    
    Cuando comienza l
  • G|---------------------|
    D|---------------------|
    A|-----5--3--2---------|
    E|--------------5--3---|
    
    VERSOS Y CORO
    G|----------------------------------------------------------------------|
    D|----------------------------------------------------------------------|
    A|-------------------------------------2-3-3-3-3-3-3-3-3-5-7-7-7-7-7-7--|
    E|-3-3-3-3-3-3-3-3-3-4-5-5-5-5-5-5-5-5----------------------------------|
    
    Discutes sin razón, quieres llevar el control
    En tus manso no, no voy a bailar
    Me haces sentir mal, luego yo pido perdón
    Siendo tu la única culpable de la situación
    
    No soy tu esclavo, sólo sé que yo te amo
    No me trates como un perro, me quitaré sólo el sombrero
    
    Y mis manos que harán, si tu piel me hace falta
    Ya no tengo ni un amigo, Dios es mi único testigo
    
    Qué puedo hacer para que me ames
    Como yo te amo, como yo te amo
    Qué puedo hacer para que me extrañes
    Como yo te extraño, como yo te extraño
    
    
    G|------------------------------------------------|
    D|--------------
  • INTRO
    
    					     |-----x2---------|
    C|----------------|X---------------|X---------------|X---------------|
    H|------------O---|--xxxxxxxxxxxxxx|-xxxxxxxxxxxxxxx|-xxxxxxxxxxx----|
    S|----------------|----o-------o---|----o-------o---|--o-o-----o-oooo|
    B|---------------o|o----oo-o-oo--o-|o----oo-o-oo--o-|o-----oo-o------|
     |1 + 2 + 3 + 4 + |1 + 2 + 3 + 4 + |1 + 2 + 3 + 4 + |1 + 2 + 3 + 4 + |
    
    C|X---------------|----------------|----------------|----------------|
    H|-xxxxxxxxxxxxxxx|oxxxxxxxxxxxxxxx|xxxxxxxxxxxxxxxx|xxxxxxxxxxxxxxO-|
    S|----o-------o---|----o-------o---|----o-------o---|----o-----o-o---|
    B|o-----o-o-oo----|--o---o-o-oo----|o-----o-o-oo---o|-o-o-oo--o-o-o--|
     |1 + 2 + 3 + 4 + |1 + 2 + 3 + 4 + |1 + 2 + 3 + 4 + |1 + 2 + 3 + 4 + |
    
    H|xxxxxxxxxxxxxxxx|oxxxxxxxxxxxxxxx|oxxxxxxxxxxxxxxx|xxxxxxxxxxxxxx--|
    S|----o-------o---|----o-------o---|----o-------o---|----o-----o-o-oo|
    B|o-----o-o-oo----|--o---o-o-oo----|o-----o-o-oo--o-|o-o--o-oo--o-o--|
     |1 + 2 + 3 + 4 + |1 
  • +
    ¡Colabora con nosotros!
    Envíanos tu versión de esta canción
  • Tutorial
    HD
    Como un perro - LIBIDO (tutorial pt1)
    3:49

Letra de Como un perro
Inicio: G Cdim7 |C |Em | G | Cdim7 |(Cdim7 5traste) |C |Em
VERSOS:
Discutes sin razón quieres llevar el control
en tus manos no, no, no voy a bailar
Me haces sentir mal luego yo pido perdón
siendo tú la única culpable de la situación
G |Cdim7(II) |(Cdim7 5traste) |C |Em
turutuuuuu
No soy tu esclavo sólo sé que yo te amo,
No me trates como un perro me quitaré sólo el sombrero.
Y mis manos que harán si tu piel me hace falta
Ya no tengo ni un amigo, Dios es mi único testigo.
Que puedo hacer para que me ames
como yo te amo... como yo te amo
Que puedo hacer para que me extrañes
como yo te extraño... como yo te extraño
No quiero escribir más canciones que te aturden
mis poemas no los lees, dime Dios que me invento,
Como te enamorare si ya todo lo he intentado
dime que es lo que a faltado
Dime en que te he defraudado.
...esta es mi primera colaboración y es para mis patas
del insti: marco y dana
y para mi “Bonita”
(pero naaa ke ver con el titulo)tkm.
Si le ponen mucho oido
se darán cuenta ke los acordes son los mismos
o al menos a si me parece.
Si tiene alguna queja, pedido, intercambio, sugerencia,
o lo ke chucha sea... me llega!




[Como un perro chords][Como un perro cifra]
© LaCuerda.net · aviso legal · privacidad · es · en · pt · contacto