Acordes de Guitarra » L »Líbido » Tiempos Tranquilos (Tab)

Tiempos Tranquilos
Líbido

  • Letra y Acordes
    INTRO:C#m G#m7 F#m7 A B x2
    
    C#m G#m7 F#m7 A B
    Tanto tiempo tranquilos en el corazón
    Y ahora estar acá, en mares tan profundos ya
    Entras al verte tras mi mente diferente
    
    C#m G#m7 F#m7 A B
    
    C#m G#m7 F#m7 A B
    Esas sensaciones que a mi cuerpo das
    Hoy me hacen pensar que no quiero verte volar
    Es el concepto entre tú y yo
    Lo que confunde mi sentir
    
    B5              C5         G5          A5
    Déjame solo, un momento, en mi calma
    B5              C5         G5          A5
    O llena el vacío tan profundo en mi alma
    
    
  • Letra y Acordes
    INTRO: C#m G# F# A*(X2)
    
    C#m                               G#
      Tanto tiempo tranquilos en el corazón
                   F#         A*
      Y ahora estar acá, en mares tan profundos ya
    C#m         G#             F#       A*
      Entras al verte tras mi mente diferente
    
    C#m G# F# A*
    
    C#m                         G#
      Esas sensaciones que a mi cuerpo das
      F#                        A*
      Hoy me hacen pensar que no quiero verte volar
    C#m          G#
      Es el concepto entre tú y yo
     F#          A*
      Lo que confunde mi sentir
    
    
  • Tablatura
    C#m G#m F#m A
    
    e---------------4---------
    b---------5---5---5-------
    g-----6-----6-------6-----
    d---6---6-----------------
    a-------------------------
    E-------------------------
    
    e-----------7^^--------5-4-4-------------------------------
    b-----5---5-------9s7--------5----5-0--------5p7-5--------
    g--6----6-----------------------6-----6----6-------4-4p6~-
    d---------------------------------------------------------
    a---------------------------------------------------------
    E---------------------------------------------------------
    
     C#m                          G#m
    Tanto tiempo tranquilos en el corazón
               F#m         A                     C#m
    Y ahora estar acá, en mares tan profundos ya
    
  • Tablatura
    [ C#m - G#m - F#m - G#m ]
    [ B - C - G - A ]
    
    
    e---------------4---------
    B---------5---5---5-------
    G-----6-----6-------6-----
    D---6---6-----------------
    A-------------------------
    E-------------------------
    
    e---------0-7^--------5-4-4-------------------------------
    B-----5-----------9s7--------5----5-0--------5s7-5--------
    G--6----6-----------------------6-----6----6-------4-4s6~-
    D---------------------------------------------------------
    A---------------------------------------------------------
    E---------------------------------------------------------
    
    Tanto tiempo tranquilos en el corazón 
    y ahora estar acá, en mares tan profundos ya
    
  • Tablatura
     Hola  este es el primer tab. q envio y quizás
     Hayan unos errores pequeños porq puede q me haya equivocado al
     Transcribir pero bueno a y esta es la version acustica
     e|---------------4----------------------7--5--4-5-4--4--------------
     b|-------5----------5---------5------5-----------------5-4-4h5-4----
     g|-----6----6----------6---6-----6-------------------------------6--
     D|---6--------6-----------------------------------------------------
     A|------------------------------------------------------------------
     E|-----------------------------------------------------------------
    
     e|------------------------------------------------------------------
     b|---4-4h5-4--------------------------------------------------------
     g|------------4/6---------------------------------------------------
     D|------------------------------------------------------------------
     A|------------------------------------------------------------------
     E|----------------------------------------------------------
  • Tablatura
       E-----9---------  E--------------
       B---9-----------  B--------------
       G-9-------------  G-----4-6p4----
       D---------------  D--4/6------6--
       A---------------  A--------------
       E---------------  E--------------
             3                  4
       E-----9---------  E-----4---------
       B-----9---------  B-------5-------
       G-----9---------  G---6-----6-----
       D---------------  D-6-------------
       A---------------  A---------------
       E---------------  E---------------
    
       INTRO
    
       E-----------4--------------7--5-4-5-4-4--------------------------
       B-----5-------5------5---5--------------5-4-4h5p4---4-4h5p4------
       G---6---6-------6--6---6--------------------------6---------4/6--
       D-6-------6------------------------------------------------------
    
  • +
    ¡Colabora con nosotros!
    Envíanos tu versión de esta canción

Letra de Tiempos Tranquilos
Tanto tiempo tranquilos en el corazón
Y ahora estar acá, en mares tan profundos ya
Entras al verte tras mi mente diferente
Esas sensaciones que a mi cuerpo das
Hoy me hacen pensar que no quiero verte volar
Es el concepto entre tú y yo
Lo que confunde mi sentir
Déjame solo, un momento, en mi calma
O llena el vacío tan profundo en mi alma
Esas sensaciones que a mi cuerpo das
Hoy me hacen pensar que no quiero verte volar
Es el concepto entre tú y yo
Lo que confunde mi sentir
Entro al verte a un presente diferente
Déjame solo, un momento, en mi calma
O llena el vacío tan profundo en mi alma
UNA COSA ANTES DE IRME NO PUSE TODOS LOS ACORDES EN TODAS LAS LINEAS
PERO SE SUPONE Q UD. LE VAN A PENER EL ORDEN
CHAUFA



© LaCuerda.net · aviso legal · privacidad · contacto