Acordes de Guitarra » L »Líbido » Ojos de Angel (Tab)

Ojos de Angel
Líbido

Letras, Acordes y Tabs para Guitarra, Bajo y Ukulele

  • Intro: Bm D G A(x2)
    
    Estrofa:
     
      Bm           D          G          A
      He visto que tienes los ojos de un angel
      Bm             D         G         A
      que mira hacia el cielo, buscando amor
      Bm               D          G          A       Bm D G          
      He entrado a un lugar prohibido, y no puedo salir iiiir
          A              
      si no es junto a ti.
    
      Bm D G A 
    
    Coro:
    
      Bm     D       G      A
      Aunque tengas, tu dueño 
      Bm     D       G  A
    
  •   Bm (SIm)    D(REM)    G(SOLM)
       E|-2-|     E|-2-|     E|-3-|
       B|-3-|     B|-3-|     B|-0-|
       D|-4-|     D|-2-|     D|-0-|
       G|-4-|     G|-0-|     G|-0-|
       A|-2-|     A|-0-|     A|-2-|
       E|-2-|     E|-0-|     E|-3-|
    
    
    La Tonada es rapida y solo con esos tres acordes
    y les recomiendo usar una guitarra acoustica se oye mejor
    
    
    Intro: Bm D G (x2)
    
    Estrofa:
     
      Bm           D          G
      He visto que tienes los ojos de un angel
      Bm             D         G
    
  •    Bm           D          G            A
    \x=====/    \======/    \======/    \x=====/
     ||||||      ||||||      ||||||      ||||||
     |ooooo      |||o|o      |o||||      ||ooo|
     ||||o|      ||||o|      o||||o      ||||||
     ||oo||      ||||||      ||||||      ||||||
    
     EXPLICACION DE ALA TABLATURA
                               h=   hammer on
                               p=   pull-off
                               /=   slide up
                               \=   slide down
                               br=  bend
                               ~=  vibrato
                               x=  palm-mute note
    
    INTRO:
    
       Bm         D            G           A
    e|-14-10---12h10--12h10---14-10----15-----15-
    
  • LA versión acústica
    
    INTRO:
       Bm         D            G           A
    e|--2-----0---0-----2-----3---3-------------
    b|----3---------------3-----0---0-----------
    g|------4---4---4-------4-------------------
    D|------------------------------------------
    A|------------------------------------------
    E|------------------------------------------
    
       Bm         D            G           A
    e|--2-----0---0-----2-----3---3-------------
    b|----3---------------3-----0---------------
    g|------4---4---4-------4-------------------
    D|------------------------------------------
    A|------------------------------------------
    E|------------------------------------------
    
       Bm         D         G           A
    
  • E|-12/2-2/12-| -->>bajo
    
    bueno...ojos de angel...
    
    intro:
    e|------------------------------|
    b|-12-----10-10--12----13-13----|
    g|---12-9---9--9---12-9--9------|
    D|------------------------------|
    A|------------------------------|
    E|------------------------------| x2
    
       Bm         D         G           A
    He visto que tienes los ojos de un angel
          Bm           D        G      A
    Que mira hacia el cielo buscando amor
    
    
    en esta parte c tok asi...
    e|----7-X-X-X-----5-X-X-X--3-X-X-X--5-X-X-X---
    
  • INTRO:
    
    G-------------------------------------------------------------
    D-------------------------------------------------------------
    A-------------------------------------------------------------
    E-2/12/2------------------------------------------------------
    
    
    G------------------------------------------------------------------
    D-------------------------------------------------5-5-55h7-77-7-7--
    A-2-2-22h5-55-5-5-----------------2-2-22h5-55-5-5------------------
    E-----------------3-3-33h5-55-5-5----------------------------------
    
    CANTO:
    
    G------------------------------------------------------------------
    D-------------------------------------------------5-5-55h7-77-7-7-- x8
    A-2-2-22h5-55-5-5-----------------2-2-22h5-55-5-5------------------
    E-----------------3-3-33h5-55-5-5----------------------------------
    
    Termina este infierno comienza este cielo todo paraíso es solo de doooos.
    G------------------------------------------------------------------
    D-------------------------------------
  • Hola, como hace un tiempo me prestaron un bajo y el guitarrista 
    debe ser musico con todos los instrumentos saqué esta canción:
    
    Intro:
    
    G-----------
    D-----------
    A-2/12------
    E-----------
    
    Versos:
    
    G-------------------------------------------
    D-------------------------------------------
    A-2-2-5-5--------------------10-10-12-12----
    E--------3-3-5-5--7-7--10-10----------------
    
    
    Coro:
    
    G-------------------------------------------
    D-------------------------------------------
    A-2-2-5-5--------------------10-10-12-12----
    E--------3-3-5-5--7-7--10-10----------------
    
    Interludio:
    
    G-------------------------------------------
    D-------------------------------------------
    A-2-2-5-5--------------------10-10-12-12----
    E--------3-3-5-5--7-7--10-10----------------
    
    Final:
    
    G-------------------------------------------
    D-------------------------------------------
    A-2-2-5-5--------------------10-10-12-12----
    E--------3-3-5-5--7-7--10-10----------------
    
    G------
  • +
    ¡Colabora con nosotros!
    Envíanos tu versión de esta canción
  • Tutorial
    HD
    Ojos de ángel - LIBIDO (Tutorial Gt1)
    3:01
  • Tutorial
    HD
    Ojos de ángel - LIBIDO (Tutorial Gt2)
    3:01

Letra de Ojos de Angel
E|-2-| E|-2-| E|-3-|
B|-3-| B|-3-| B|-0-|
D|-4-| D|-2-| D|-0-|
G|-4-| G|-0-| G|-0-|
A|-2-| A|-0-| A|-2-|
E|-2-| E|-0-| E|-3-|
La Tonada es rapida y solo con esos tres acordes
y les recomiendo usar una guitarra acoustica se oye mejor
Estrofa:

He visto que tienes los ojos de un angel
que mira hacia el cielo, buscando amor
He entrado a un lugar prohibido, y no puedo salir iiiir
si no es junto a ti.
Aunque tengas, tu dueño
yo seguire en pie
Aunque duerman, tus besos
se que no descansare
El tiempo ha dañado las mentes dormidas
despiertan tus ansias, tu sexo, la sed
termina este infierno comienza este cielo
todo paraiso es solo de dos.
Aunque tengas, tu dueño
yo seguire en pie
Aunque duerman, tus besos
se que no descansare
Aunque tengas (repite 3 veces)


*************************************
* Cualquier Consulta escribir a *
* Jitosa@usa.net [.)(.] *
* Jimmy Tovar Sanchez *
* Yazuga [Payaso] Lupamue [Lucho] *
* Cusco - Peru [FNST] *
*************************************




[Ojos de Angel chords][Ojos de Angel cifra]
© LaCuerda.net · aviso legal · privacidad · es · en · pt · contacto