Acordes de Guitarra » L »Líbido » Nicotina (Tab)

Nicotina
Líbido

  • Letra y Acordes
    escala del 1 al 1000000
    
    nota:lo ke esta entre parentesis va rapido
    INTRO:
    (D7 Gm ) x3
    
    G m                           D7
    Con las manos siempre en los bolsillos
                             SOL m
    Vuelvo la mirada hacia atrás
    G m                  D7
    Como no deje un solo testigo
                          SOL m  (SOLm F#m F )
    Dejo la sonrisa en su lugar
    
    FA M                  A#
    I know i know voy a dejarte
    FA M                    A#        (A# A G # G)
    Love me and fuck me in your mind
    SOL M                 Cm   A#       D7     SOL m
    
  • Tablatura
    Intro:  D-Gm ,  D-Gm ,  D-Gm
    
    Con las manos siempre en los bolsillos
       Gm                              D
    Vuelvo la mirada hacia atrás
                                 Gm
    Como no dejé un solo testigo
      Gm                      D
    Dejo la sonrisa en su lugar
                            Gm
    Coro:
    
     I know I know voy a dejarte
    F                       A#
    Love me and Fuck me in your mind
    F                           A#     A#*-A*-G#-G
     La nicotina del mundo  ya no me deja pensar
    G                Cm     A#        A         Gm  D-Gm  D-Gm
    
    Siempre he pretendido ser tu amigo
    
  • Tab p/Bajo
    Intro
    
    G �--------------------------
    D �--------------------------
    A �------10---1010-------
    E �--10---------------------
    
    G �--------------------------
    D �--------------------------
    A �------10---1010-------
    E �--10---------------------
    
    G �--------------------------
    D �--------------------------
    A �------10-10-10--------
    E �--10---------------------
    
       Parte cantada
    
          Con las manos siempre…
    G �----------------------------------------
    D �---------------10-12-12-10--------------
    A �--10-12-13-------------------12---------
    E �----------------------------------------
    
    G �----------------------------------------
    D �----------------------------------------
    A �------12--------12----12-10-------------
    E �--10----10-10-----10-------12-10--------
    
            Vuelvo la mirada hacia…
    G �----------------------------------------
    D �---------
  • Tab p/Bajo
    he visto los otros bajos..., sinceramente..., dejan mucho q desear...,
    este bajo en realidad me ayudo mi profe d musik, esta cancion la llegamos
    a tocar por eso no creo q haya muchos errores...,
    si los hay haganmelo saber a: racj96@hotmail.com
    
    Todo esto es el bajo, es un poco complicado, pero vale la pena =)
    Ustedes identifiquen que parte corresponde a cual parte,
    esa es la chamba q siquiera deben hacer :P
    
    
    G----7-----7-----7------|
    D------555---555---5-5-5|
    A-----------------------|
    E-----------------------|
    
    G-----3--5--7--5--3--5--------2-----2----|
    D--55-------------------00-44----00---44-|
    A----------------------------------------|
    E----------------------------------------|
    
    G-------2-5-3-2-3-----------------|
    D--00-4-----------55-33-0-5-3-4-0-|
    A---------------------------------|
    E---------------------------------|
    
    G-----3--5--7--5--3--5--------2-----2----|
    D--55-------------------00-44----00---44-|
    A----------------------------------------|
    E----------------------------------
  • Tab p/Bajo
    Wemo esta la segunda tablaura q envio y esta realmente correcta
    solo tienen q acomodarse con la cancion. cualkier duda a mi correo.
    
    Intro
    
    G|--------------------------
    D|--12----------------------
    A|------101010--------------
    E|--------------------------
    
    G|--------------------------
    D|--12----------------------
    A|------101010--------------
    E|--------------------------
    
    G|--------------------------
    D|--12----------------------
    A|------10-10-10------------
    E|--------------------------
    
    Riff
    
      Con las manos siempre en los bolsillos
    G|----------------------------|-----------------
    D|--------8—10--10/12-10--8---|-----------------
    A|—1010---------------------12|----9-12----12-9-
    E|----------------------------|-10------10------
    
     Vuelvo la mirada hacia atrás.
    G|--------------------------|---------------------
    D|--------------------------|10/1212-10/1212-10-8-
    A|-----9-12-1515-13-12-10---|---------------------
    E|---10---------------------|---------------------
    
    
      Como no deje un solo te
  • +
    ¡Colabora con nosotros!
    Envíanos tu versión de esta canción

Letra de Nicotina
Con las manos siempre en los bolsillos
Vuelvo la mirada hacia atrás
Como no deje un solo testigo
Dejo la sonrisa en su lugar
I know i know voy a dejarte
Love me and fuck me in your mind
La nicotina del mundo ya no me deja pensar
Y listo una transcripcion perfecta.
Siempre he pretendido ser tu amigo
Haces que yo me sienta peor
Estoy cansado estoy perdido
Dejame explicártelo mejor
I know i know voy a dejarte
Love me and fuck me in your mind
La nicotina del mundo ya no me deja pensar [x2]
Con el ego siempre en el fundillo
Tuve que aceptarlo una vez más
Nadie nunca entiende lo que dices
Dejo la sonrisa en su lugar
I know i know voy a dejarte
Love me and fuck me in your mind
La nicotina del mundo ya no me deja pensar
La nicotina ya no me deja pensar (x2)



© LaCuerda.net · aviso legal · privacidad · contacto