Acordes de Guitarra » L »Líbido » Como Estas (Tab)

Como Estas
Líbido

Letras, Acordes y Tabs para Guitarra, Bajo y Ukulele

  • |--------3-----------3----------------3----------3-------
    |-----1------1----1------1---------1------1----1------1--
    |--------------------------------------------------------
    |-----------------------------2--------------------------
    |-3------------------------------------------------------
    |--------------------------------------------------------
    
    |-------------3--------------3------------------------3-------------3----
    |--------3---------3---3----------3-----3-3-3---1--------1---1---------1-
    |---0--------------------------------------------------------------------
    |------------------------------------------------------------------------
    |------------------------------------------------------------------------
    |------------------------------------------------------------------------
    
    C                  G         F    C  C*
    [Ahhhh]   Como estas [turututú] como estas
    C                        G
    Te entregaste al saber tu nombre 
             F      
    Quisiste verme como tu
    
  • B G#/B  G/B (dos veces)
    F#
    
    aaaahhh...
    B
    Cómo estás... Tudutu tutuuuuuuuu ......cómo estás
            F#            C#m        E             Em  B
    Te entregaste al saber tu nombre 
                      F#
    Quisiste verme como tú
              C#m        E
    Sentiste renacer
              B
    
    Me enseñaste tus ojos negros 
                     F#
    Y entonaste  esa canción
            C#m           E
    Te entendí tal como eres
             Em         B
    
  • +
    ¡Colabora con nosotros!
    Envíanos tu versión de esta canción

Letra de Como Estas
[Ahhhh] Como estas [turututú] como estas
Te entregaste al saber tu nombre
Quisiste verme como tu
Sentiste renacer
Me enseñaste tus ojos negros
Y entonaste esa canción
Te entendí tal como eres
Y entregaste tanto
Me mostraste tu calor
Y ahora no puedes ver
Por ti será mejor
Que no busques más fuerte como antes
Sin más
Como estas
[Ahhhh] Como estas [turututú] como estas
Hoy sentiste tus ojos solos
Preguntaste como tu
Podrías verme para siempre
Y entregaste tanto
Me mostraste tu calor
Y ahora no puedes ver
Por ti será mejor
Que no busques más fuerte como antes
Sin más
Como estas
Perdóname si te he hecho daño, tanto daño. Tanto daño, tanto daño
Perdóname tanto daño perdóname
Como estas
E|-0-| E|-3-| E|-1-| E|-1-| E|-3-| E l-0-l
B|-1-| B|-3-| B|-1-| B|-1-| B|-1-| B l-1-l
D|-0-| D|-0-| D|-2-| D|-1-| D|-0-| D l-2-l
G|-2-| G|-0-| G|-3-| G|-2-| G|-2-| G l-4-l
A|-3-| A|-2-| A|-3-| A|-2-| A|-3-| A l-0-l
E|-0-| E|-3-| E|-1-| E|-0-| E|-0-| E l-0-l
ESTA CANCION SE LA DEDICO A MIs amigas Nathaly, Ima, Karen, Lucia,Sandra etc.




[Como Estas chords][Como Estas cifra]
© LaCuerda.net · aviso legal · privacidad · es · en · pt · contacto