Acordes de Guitarra » L »la Ley » La luna (unplugged) (Tab)

La luna (unplugged)
la Ley

  • Letra y Acordes
    D  Asus4 (x 2)
    
    D
    La Luna Es Incompleta
    Asus4
    Si El Sol No Está Ahí
    D
    La Luna No Se Queja
    Asus4                                         D
    Siempre Que El Sol Atienda Su Amanecer
             Asus4              D             Asus4
    Y Su Atardecer, Su Amanecer
    
    D
    La Luna Vive Sola
    Asus4
    Y Tiene Que Entender
    D
    Que El Sol Que La Ilumina
    Asus4                                  D
    
  • Letra y Acordes
    D
     La luna es inconpleta
    
     si el sol no está ahí
    D 
     la luna no se queja
                                 D
     siempre que el sol atienda su amanecaer
           Em             D        Em
     y su atardecer, su amanecer
    
    
    D
     La luna vive sola
    
     y tiene que entender
    D
     que el sol que la ilumina
    
     tambien hace brillar a otra luna
    
  • Letra y Acordes
    INTRODUC: D Em D Em
    
    
    D
     La luna es inconpleta
    Em 
     si el sol no está ahí
    D 
     la luna no se queja
    Em                              D
     siempre que el sol atienda su amanecaer
           Em             D        Em
     y su atardecer, su amanecer
    
    
    D
     La luna vive sola
    Em
     y tiene que entender
    D
    
  • Tablatura
    e------------0---------------0---------------0---------------0-----
    B------------10--------------10--------------10--------------10----
    G------------0---------------0---------------0---------------0-----      x2
    D--------0--------------0---------------9---------------9----------
    A-----9--------------9---------------10--------------10------------
    E--10-------------10---------------0---------------0---------------
    
                La luna es incompleta,       si el sol no está ahí
    e------------0---------------0---------------0---------------0-----
    B------------10--------------10--------------10--------------10----
    G------------0---------------0---------------0---------------0-----
    D--------0--------------0---------------9---------------9----------
    A-----9--------------9---------------10--------------10------------
    E--10-------------10---------------0---------------0---------------
    
                la luna no se queja,       siempre que el sol atienda su
    e------------0---------------0---------------0---------------0-----
    B------------10--------------10--------------10--------------10----
    G------------0---------------0---------------0---------------0-----
    D--------0--------------0---------------9---------------9----------
    
  • Tablatura
    Esta cancion es de las que mas me gustan del nuevo disco
    de La Ley
    Dice asì:
    
    Esto se repite durante casi toda la can ciòn
    
    e-----------5-------------5----------------------5--------------5----
    B-----------5-------------5----------------------5--------------5----
    G------------------------------------------4------------------4------
    D---4----4--------4----4----------------5-------------------5--------
    A-----5-------------5------------------------------------------------
    E-----------------------------------0--------------------0-----------
     
      Exepto donde dice:
    
         Y Su Atardecer, Su Amanecer, mj m m m m
    e------------------12--
    B------------------12--
    G----------------------
    D----------------------
    A---------9------------
    E------10-----10-------
    
    Y el final dice asì:
    e--12--------------
    B----12------------
    G-------0----------
    D---------0--------
    A------------9-----
    E--------------10--
    
    muchas grasias.
  • Tablatura
    Esta canción es genial, la saque pensando en Anayely 
    Sayonara.Va por ti.
    
    
    
    
    e------------0---------------0---------------0---------------0-----
    B------------12--------------12--------------12--------------12----
    G------------0---------------0---------------0---------------0-----
    D--------9--------------9---------------11--------------11---------
    A-----11-------------11--------------12--------------12------------
    E--12-------------12---------------0---------------0---------------
    
    e------------0------------------0---------------0----------------0-
    B------------12-----------------12--------------12---------------12
    G------------0------------------0---------------0----------------0-
    D--------9-----------------9---------------11--------------11------
    A-----11----------------11--------------12---------------12--------
    E--12----------------12---------------0----------------0-----------
                   la luna es incompleta, si el sol no está ahi
    
    
    e------------0-----
  • +
    ¡Colabora con nosotros!
    Envíanos tu versión de esta canción

Letra de La luna (unplugged)
La Luna Es Incompleta
Si El Sol No Está Ahí
La Luna No Se Queja
Siempre Que El Sol Atienda Su Amanecer
Y Su Atardecer, Su Amanecer
La Luna Vive Sola
Y Tiene Que Entender
Que El Sol Que La Ilumina
También Hace Brillar A Otra Luna
Que Despierta Con Él
Al Amanecer Y Al Atardecer



© LaCuerda.net · aviso legal · privacidad · contacto
DINAMICO