Acordes de Guitarra » I »Intoxicados » Volver a casa (Tab)

Volver a casa
Intoxicados

Letras, Acordes y Tabs para Guitarra, Bajo y Ukulele

  • e|-------------------|
    B|-------------------|
    G|----4-4-4-4-3-2-0--|
    D|----4-4-4-4-3-2-0--|
    A|-2-----------------|
    E|-------------------|
    
    RIFF PRINCIPAL
    
    e|-------------------|
    B|-------------------|
    G|-4---4-4-4-4-3-2-0-|
    D|-4---4-4-4-4-3-2-0-|
    A|-2---2-2-2---------|
    E|-------------------|
    
    RIFF
    Si algun dia te hice 
    RIFF
    mal perdoname nena 
    
  • e|-------------------------------------
    B|-------------------------------------
    G|----4--4-4--4-3-2-0-----con-palm-mute
    D|----4--4-4--4-3-2-0------------------
    A|-2-----------------------------------
    E|-------------------------------------
    
      Riff 2     Riff 3            Riff 4
    e|-0-------|-7-x-7-x-x-7-x-7-|---------|
    B|-0-------|-7-x-7-x-x-7-x-7-|---------|
    G|-1-------|-----------------|-4-3-2-0-|
    D|-2-------|-----------------|-4-3-2-0-|
    A|-2-------|-----------------|---------|
    E|-0--3b-0-|-----------------|---------|
    
       Riff 5
    e|----7--7--7--10---7--7---------|
    B|----7--7--7--9b---7--7--9---7--|
    G|-s7---------------------9b--7v-|
    D|-------------------------------|
    
  • Esto entra despues de la bateria y lo hace en casi toda la cancion
    
    G----------------------------------
    D---------4--3--2--0---------------
    A--2--0---------------2------------
    E--------2-------------------------
    
    y despues cuando dice:
    "pero ahora nena quisiera volver"
    hace:
    
    G----------------------------------
    D----------------------------------
    A--2--2--2------222----------------
    E----------------------------------
    
    el estribillo es:
    
    G----------------------------------
    D----------------------------------
    A--77----77------77-55-44-22-------
    E-----77----77---------------------
    esto se engancha en lo q sigue abajo
    
    G----------------------------------
    D---------4--3--2--0---------------
    A--2--0---------------2------------
    E--------2-------------------------
    esto lo repite 2 veces y vuelve con lo anterior
  •           "VOLVER A CASA"
    
    Letra: Cristian "Pity" Alvarez.
    
    Int.: Ezequiel "Peri" Rodriguez
    
    Arm: E (Mi)
    
    ------------------------------------------------------------------------
    ESTAS SON ALGUNAS COSAS QUE PUEDAN LLEGAR A NO ENTENDER DURANTE EL TEMA:
    ------------------------------------------------------------------------
    
    ---: Arrastrar la nota.
    
    ))): Vibrato de mano o de garganta, da igual.
    
    (( )): Suenan las notas juntas.
    
    (b)u: Bending normal sin volver a la nota normal.
    
    (b)tueu:El bending aranca sonando con una "T",
    
    despues llegamos hasta el la nota aspirada normal,
    
    y despues volvemos al bending y nos quedamos ahi,
    
    sin volver a la nota normal.
    
    (b)tue: Aca arrancamos con el bending que tambien empieza
    
    con una "T" y vamos hasta la nota normal.
    
    (b)tu: Bending que suena con "T" pero no vuelve a la nota normal.
    
    (*): Nota normal aspira que tambien suena con "T".
    -----------------------------------------------------------------------
    
    --------------------------------------------
  • +
    ¡Colabora con nosotros!
    Envíanos tu versión de esta canción
  • Tutorial
    volver a casa intoxicados- como tocar con guitarra
    11:00

Letra de Volver a casa
RIFF PRINCIPAL
RIFF
Si algun dia te hice
RIFF
mal perdoname nena
RIFF
y dejame entrar
RIFF
hace tiempo te engañe
pero ahora nena quisiera
vo-lver volver a casa
RIFF
volver a casa
volver a casa
RIFF
volver a casa
con el tiempo volveras
a extrañarme nena
y me gustara porque un dia me canse
pero ahora nena quiesiera volver
volver a casa
volver a casa
es facil la cancion hay que sacar el ritmo del riff
y listo.
saludos a todos




[Volver a casa chords][Volver a casa cifra]
© LaCuerda.net · aviso legal · privacidad · es · en · pt · contacto