Acordes de Guitarra » I »Intoxicados » Fuego (Tab)

Fuego
Intoxicados

Letras, Acordes y Tabs para Guitarra, Bajo y Ukulele

  • e--10-9-----9-7----7---------------
    b--------------------10----10-7----
    g----------------------------------
    d----------------------------------   x3 (en el puente
    a----------------------------------    lo hace x2)
    e----------------------------------
    
    E
    b--7-8---7-8---10-8-7-8---7-8---7-8---7-----
    g---------------------------------------10-8
    d-------------------------------------------  (x2 en el
    a-------------------------------------------      puente)
    e-------------------------------------------
    
    INTRO:
          D      A      G      A      x2
    Punteo      D      A      G      A      x2
    
    D              A
    Esta vez es en serio
    
  • D               A
    Esta vez es encerio
    G
    no estoy mintiendo
    A
    algo se prende fuego
    D            A
    se que mucha veces dije
    G
    que el lobo venia pero esta vez
    A
    el lobo esta aca
    D
    se prende fuego
    A
    mi pelo mi piano
    G
    mis discos
    A
    la ropa y el perro
    
  • D - A - Aadd9 - A - G - A - Aadd9 - A     x2
    
    D - A - G - A Aadd9 A   x2
    
    
    D               A    Aadd9 A
     Esta vez es encerio
                 G
    no estoy mintiendo
          A      Aadd9 A
    algo se prende fuego
    D                    A Aadd9 A
     se que mucha veces dije
                   G
    que el lobo venia pero esta vez
        A   Aadd9  A
    el lobo esta aca
    D
     se prende fuego
        A
    
  • D A G A x4
    
    A la 2 vez que lo hace entra la segunda guitarra con esto
    
    |-10-9-9-7-7---------|--|----------------|-10-9-9-7-7---------|--|
    |------------10-10-7-|--|-7-8-7-8-7-8-10-|------------10-10-7-|--|
    |--------------------|x3|----------------|--------------------|x2|
    
    |----------------|-----------||
    |-7-8-7-8-7-8-10-|-8-7---7---||
    |----------------|-----9---7-||
    
    
    D               A
     Esta vez es encerio
                 G
    no estoy mintiendo
          A
    algo se prende fuego
    D                    A
    
  • intro: RE, LA, SOL, LA
    
    En la segunda vuelta de la intro entra la primera guitarra
    con este punteo siguiendo a la base:
    
    e|---------------|
    B|--7~7/8-5-3----|
    G|---------------|
    D|---------------|
    A|---------------|
    E|---------------|
    
    En la tercera vuelta de la intro la primera guitarra hace lo siguiente,
    esta parte del tema lo toca con 8vas:
    
    e|--------------------------|--|-------------------------------------|
    B|----15/14/12/10-----------|--|-------------------------------------|
    G|--------------------------|x3|---11/12/11/12/12/14-----------------|
    D|----12/11/9/-7------------|--|-------------------------------------|
    A|--------------------------|--|---9/10/9/10/9/10/12-----------------|
    
  •    D       A      G      A
    e|--------------------------
    B|-7v----8-5v-----3v--------
    G|--------------------------
    D|--------------------------
    A|--------------------------
    E|--------------------------
    
    
    e|-------------------------------------------------------------
    B|-15s14--14s12--12s10--10s7------7s8--7s8--7s8--8s10----------
    G|----------------------------x3-------------------------------
    D|-12s11--11s9----9s7----7s4------4s5--4s5--4s5--5s7-----------
    A|-------------------------------------------------------------
    E|-------------------------------------------------------------
    
    e|-------------------------------------------------------------
    B|-15s14--14s12--12s10--10s7------7s8--7s8--8s10--8s7--5--7--3-
    G|----------------------------x2-------------------------------
    D|-12s11--11s9----9s7----7s4------4s5--4s5--5s7---5s4--2--4--0-
    
  • RE      (LA/LAadd9/LA)   SOL    LA           RE
    E||------|----------------|------|------|--------------------|
    B||------|----------------|------|------|--7--------------8--|
    G||------|----------------|------|------|--------------------|
    D||------|----------------|------|------|--------------------|
    A||------|----------------|------|------|--------------------|
    E||------|----------------|------|------|--------------------|
    
           LA                    SOL                LA
    --------------------|-------------------|------------------|
    --5~-------------7--|--3~---------------|------------------|
    --------------------|-------------------|------------------|
    --------------------|-------------------|------------------|
    --------------------|-------------------|------------------|
    --------------------|-------------------|------------------|
    
             RE                                      LA
    ---------------------------------|---------------------------------|
    --15/14---14/12---12/10---10/7---|--15/14---14/12---12/10---10/7---|
    ---------------------------------|---------------------------------|
    
  • intro:
    
    (lo mismo cada vez que la guitarra haga el Riff)
      Re            La           Sol          La
    1----------------------------------------------------------!
    2----------------------------------------------------------! X2
    3-5-5-5-2--------------------------------------------------!
    4----------3----5-5-0-5-4----3-3-0-3-0----5--7--8----------!
    
    
    Versos:
    
    Esta vez es en serio, no estoy mintiendo, algo se prende fuego
      Re             La           Sol          La
    1----------------------------------------------------------!
    2----------------------------------------------------------!
    3-5-5-3-5--------------------------------------------------!
    4----------------5-5-0-5-4----3-3-0-3-0----5-5-0-3-5-------!
    
    se que muchas veces dije que el lobo venia pero esta vez el lobo esta aca
      Re             La           Sol          La
    1----------------------------------------------------------!
    2----------------------------------------------------------!
    3-5-5-5-------------------------------------
  • +
    ¡Colabora con nosotros!
    Envíanos tu versión de esta canción
  • Tutorial
    como tocar fuego de intoxicados
    3:24

Letra de Fuego
Esta vez es en serio
no estoy mintiendo
algo se prende fuego
se que muchas veces dije
que el lobo venia pero esta vez
el lobo esta aca
se prende fuego mi pelo mi piano
mis discos la ropa y el perro
Puede ser que otra vez no sea cierto
pero siento como el fuego
me quema por dentro
Esta vez es en serio
no estoy mintiendo
algo se prende fuego
Se que muchas veces dije
que el lobo venia pero esta vez
el lobo esta aca
se prende fuego mi pelo mi piano
mis discos la ropa y el perro
Puede ser que otra vez no sea cierto
pero siento como el fuego
me quema por dentro
Dame un balde de agua
o de arena
pasame el matafuegos
El incendio esta cerca y no voy a quemarme
sin antes pelear
se prende fuego mi pelo mi piano
mis discos la ropa y el perro
Puede ser que otra vez no sea cierto
pero siento como el fuego
me quema por dentro
Fuego fuego fuego fuego
fuego
fuego
Estamos enfermos
fuego
fuego
Estamos enfermos
Perdonennos
Perdonennos
Fuego fuego fuego fuego
fuego fuego............ repite hasta el final




[Fuego chords][Fuego cifra]
© LaCuerda.net · aviso legal · privacidad · es · en · pt · contacto