Acordes de Guitarra » I »Intoxicados » Esta Saliendo el Sol (Tab)

Esta Saliendo el Sol
Intoxicados

Letras, Acordes y Tabs para Guitarra, Bajo y Ukulele

  • ----------------------- E
    ----------------------- B
    --------2------2------- G
    -2---4-----4----------- D
    ----------------------- A
    ----------------------- E
    
    A                 E
    Esta saliendo el sol que es
    F#m          D 
    sin duda mi dios
    A                   E
    pero no estoy apto para aprender hoy
    F#m          D
    de su sabiduria
    A                    E
    porque la luna aparecio
             D                             Bm-C#m   A      
    y me invito a estar con ella hasta que vuelvas vos
    
    
  • e|---0--x---0------5------
    b|---2--3---2------5------
    g|---2--2---2------6------
    d|---2--4---2------7------
    a|---0--0---0------7------
    E|---0--0---0------5------
    
    
    RIFF PRINCIPAL
    
    e|-----------------
    b|-----------------
    g|-----------------
    d|-----------------
    a|---------0---0---
    E|---0--2----2-----
    
    
    A                E
    Esta saliendo el sol que es
    
  • A                    E        F#m            D
    Ya está saliendo el sol que es sin duda mi Dios
    A               E                   F#m           D
    Pero no estoy apto para aprender hoy de su sabiduría
    A                                 E
    Porque la luna apareció y me invitó a estar con ella
                E       A
    hasta que vuelvas vos
    
    A                    E         F#m           D
    Ya está saliendo el sol, que es Sin duda mi Dios
    A                             E
    Y aunque no cierre el ojo en toda la semana
        F#m                D
    Y tenga ganas de desmayarme en la cama
    A                 E            D       E   A
    Voy a salir a recibir su bendición o Dios...
    
    A                      E
    Padre Sol nuestro que estás en los Cielos
    
  • e|-----------------|1
    b|-----------------|2
    g|-----------------|3
    d|-----------------|4
    a|---------0---0---|5
    E|---0--2----2-----|6
    
    
    A                E
    Esta saliendo el sol que es
    F#m          D
    sin duda mi dios
    A                   E             F#
    pero no estoy apto para aprender hoy
           D
    de su sabiduria
    A                     E
    porque la luna aparecio
          D(bis)             C#      B   A   B C#   A
    y me invito a estar con ella hasta que vuelvas vos
    
  • e|-----------|-10--12--12s14--------------|------------------------------
    B|-----------|------------------12s14--10-|------------------------------
    G|-----------|-11--12--12s14--------------|-s12-12-12-12-12-11-9-7-9s11-7
    D|-----------|------------------12s14--11-|------------------------------
    A|-----0---0-|----------------------------|------------------------------
    E|-0-2---2---|----------------------------|------------------------------
    
    
    Riff 1
    
    
    A                   E
    Ya está saliendo el sol que es
    
    F#m             D
      sin duda mi Dios,
    
             A
    pero no estoy apto para
    
    
  • /Intro/
    
    Esta es la introducción que tiene el tema. Se debe pulsar la cuerda 
    la primera vez (el primer 7) normal, y antes de tocar la segunda vez 
    (el segundo 7) debe apagarse el sonido, luego dejar sonando.
    Eso mismo se repite dos veces.
    
    
    G |---------------|
    D |----7--7-------|  X 2
    A |---------------|
    E |---------------|
    
    /Verso 1/
    
    Aquí empieza la letra, se toca muy seguida una de la otra 
    de tal forma que cuando termine en el último 5 de la primera parte 
    caiga directamente en el 7 del comienzo.
    
    Riff 1
    
    G |--------------------------------------------------------------|
    D |----7--7----7----------------7-6-4--4----4--------------------|  X 2
    A |--------------9-8-7--7-----7---------------9-7-5--5-----5-4-5-|
    E |--------------------------------------------------------------|
    
    
    Riff 2
    
    G |--------------------------------------------------------------|
    D |----7--7----7----------------------------------7-9-7----------|  
    A |--------------9-8-7--7-----7
  • ARMONICA EN C
    
    solo del principio
    
    4 5 6 - (5) 5 (5) 6 - (5) 5 6 4 - 5 6 (6) 6 - (5) 6 (5) 4 4 -
    4 4 5 (5) 5 (5) 6
    
    solo del final
    
    5 4 - 4 (4) 5 - 5 (5) 6 - 4 5 5 4 - 4 5 5 6 - 6 7 (6)-
    5 (5) 5 - 4 (4) 4
  • Espero q les guste y escuchen bien la cancion xq no esta en la nota LA
    eh visto a muchos q la tocan en esa, pero no es la correcta, aca les dejo
    el tab
    
    ARMONICA EN D
    
    (m):significa movimiento de mano
    
    primer solo:(01:47)
    
    (1)e(2)(3)4e(3)e 4(4)e - 4(3)(4)tue(2)t
    (3)t --] (4)5(4)4 - (4)e --] (2)t - (2)t(2)t
    (3)tue 4(3)4(4)tue [(4)(5)]tue
    
    
    segundo solo:(3:03)
    
    (3)e(2)u - (2)u(3)u(3)ue 4(4)ue(m) - (2)(3)
    (3)(2)(3)e(4)ue - (4)ue 6 5 - (3)4(3)(m) - 3(3)3(m)
    
    PARA VOS MALE TEAMO MUCHO!
  • +
    ¡Colabora con nosotros!
    Envíanos tu versión de esta canción

Letra de Esta Saliendo el Sol
Esta saliendo el sol que es
sin duda mi dios
pero no estoy apto para aprender hoy
de su sabiduria
porque la luna aparecio
y me invito a estar con ella hasta que vuelvas vos
Esta saliendo el sol que es
sin duda mi dios
y aunque no cerre un ojo en toda la semana
y tenga ganas de desmayarme en la cama
voy a salir a recibir su bendicion oh dios
Padre sol nuestro que estas en los cielos
guiame si no esta bien la vida que llevo
no dejes nunca de brillar
porque eso me pone bien cuando estoy un poco mal
la luz nuestra de cada dia danosle hoy y que asi sea amen.
Que asi sea Hermanos!




[Esta Saliendo el Sol chords][Esta Saliendo el Sol cifra]
© LaCuerda.net · aviso legal · privacidad · es · en · pt · contacto