Acordes de Guitarra » I »Intoxicados » De la guitarra (Tab)

De la guitarra
Intoxicados

Letras, Acordes y Tabs para Guitarra, Bajo y Ukulele

  • INTRO: G A C C X2
    
    G       A                C              G
     Solía verla siempre temprano en las mañanas
    G                 A                   C
     Tomaba el mismo tren que yo pero esperaba enfente de la estación
    G                 A               C             G
    Es que enfrente habia un negocio que vendía guitarras
    G              A                 C
     Y me llamaba la atención de la forma en que las miraba
    Em    A            C
     Uh, uh...hacia el tren mientras sus sueños se alejaban
    Em    A             C
     Uh, uh...las estaciones tristes la vieron pasar
    
    MIENTRAS VA EL PUNTEO:G-A-C-C X2
    
    G          A           C              G
     Jamás volví a verla mirando las guitarras
    G            A                C
    
  • Intro: (G-A-C-C)x2
           (G-A-C-C)x2
    
    e|-------------------------3-----------------------
    B|---------------------------3---------------------
    G|-4/5/4-4/5/4---7-----4/5-----4-7br---------------
    D|-------------5-----5---------------7----7-5------
    A|------------------------------------7------------
    E|-------------------------------------------------
    
    e|-------------------3-------------
    B|---------------------3-----------
    G|---------------4/5-----4-7br-----
    D|-4/5/4----7--5---------------7---
    A|--------5----------------------7-
    E|---------------------------------
    
    e|-------------8---10-8---10-8------8-8-7-5-3-|
    B|----10---------8------8------8--------------|
    G|-7/9---9--7/9-------------------9-----------|
    
  •              G                 A             C
    e|----------------------3--------------------------
    B|------------3-----------3----5s2-----------------
    G|-4ba--4ba---------4h5-----4------2-----0h2-0-----
    D|----------5-----5------------------2-------------
    A|-------------------------------------------------
    E|-------------------------------------------------
    
              G               A                   C
    e|------------------3-----------------5----------8----10-8-----
    B|---------3----------3---5s2------s5---5----------8-------8---
    G|-4ba----------4h5-----4-----2---------------s9---------------
    D|------5-----5-----------------2------------------------------
    A|-------------------------------------------------------------
    E|-------------------------------------------------------------
    
       C                     G
    e|-10-8-------8-8--7---------
    B|------8-------------10-8---
    G|---------9-----------------
    
  • Intro: (G-A-C-C)x2              DE LA GUITARRA - INTOXICADOS
           (G-A-C-C)x2
    
    
        riff 1
    
    e|--------------|
    B|--------------|
    G|--------------|
    D|--------------|
    A|-------2-3-5--|
    E|-0-3-5--------|
    
        riff 2
    
    e|--3/5--7--5/3------|
    B|--3/5-----5/3------|
    G|-------------------|
    D|-------------------|
    A|-------------------|
    
  • Holas mi nombre es Santiago (…), les dejo el solo de armónica de
    este buen tema, para mi esta perfecto…
    
    Comienza con armónica de G (sol)
    
    2__4 (4) 5 (4)- (6)—6 (5) 5
    
    4 (4) 5 (4) 3 (3) 4—
    
    Ahora cambia una armónica de C (do)
    
    (2) T (2) T (2) T (3) tueu (2)
    
    (2) T (2) T (3) tueu (2)- (3) tueu (2)
    
    (3)T 4 (4) tu (4) tu (3) <(4)> Tueu
    
    (2) T (3) T (2) T 4 (2) T
    
    <(4)> tueu (3) (2) (1) 2-
    
    < (4)> tueu (3)
    
    (4) tueu 4 (3) tue--
    
    Los números entre paréntesis deben aspirarse,
    y los sin paréntesis deben soplarse.
    Los bendings están indicados con las palabras q
    deben pronunciarse, < (4)> significa q hay q tocar
    la nota pero  sucia (o sea, q suene el 5 también)….
    2__4: significa q hay q ligar la nota(pasar rapido de
    nota a nota)
     Cualquier sugerencia les dejo mi correo  tuli8787@hotmail.com
  • armonica en C(do):
    
    (2):aspirado
      2:soplado
     (2)b:bend aspirado
     lig:ligado
      (3)b-:hacer bending y bajar asta su afinacion natural
    
      3(3)4(3)5(4)4(3)     3(3)4(3)     (2)2(2)
    
    
    3 3 3(3)b-
    
    3 3(3)b-
    
    3(3)b-2(3)4(4)(4)4 (5)lig hasta (2)
    
    3(3)3 4 3(4)tua lig hasta(1)
    
    (4)tualig hasta (2)
    
    (4)tua(4)b(3)b(3)tua
    
    
    esta es una version mia q suena mejor que la anterior.
    bueno..cualquier duda o correccion mandame un mail a
    laleyenda_desamir@hotmail.com
    
    Aguante Intoxicados y el RockAnRoll LocO!!!!
  • +
    ¡Colabora con nosotros!
    Envíanos tu versión de esta canción

Letra de De la guitarra
Solía verla siempre temprano en las mañanas
Tomaba el mismo tren que yo pero esperaba enfente de la estación
Es que enfrente habia un negocio que vendía guitarras
Y me llamaba la atención de la forma en que las miraba
Uh, uh...hacia el tren mientras sus sueños se alejaban
Uh, uh...las estaciones tristes la vieron pasar
MIENTRAS VA EL PUNTEO:G-A-C-C X2
Jamás volví a verla mirando las guitarras
Pero tengo la sensación que ahora esta tocando alguna canción
Uh, uh...hacía el tren mientras sus sueños se alejaban
Uh, uh...las estaciones tristes la vieron pasaaaaaar
No hablo de drogas, no hablo de transas
no hablo de cosas raras.
Es un pequeño anhelo, una pequeña tentación.
El sueño de algunos puede ser cambiar el auto
o tener una casa de fin de semana
El sueño de otros puede ser sólo tener una guitarra,
para tocar esta canción que escuchas.
MIENTRAS VA LA ARMONICA:G-A-C-C X4
Uh, uh...hacía el tren mientras sus sueños se alejaban
Uh, uh...las estaciones tristes la vieron pasaaaaaar
No hablo de drogas, no hablo de transas
no hablo de cosas raras.
Es un pequeño anhelo, una pequeña tentación.
El sueño de algunos puede ser cambiar el auto
o tener una casa de fin de semana
El sueño de otros puede ser sólo tener una guitarra,
para tocar esta canción que escuchas.
MIENTRAS VA EL PUNTEO:G-A-C-C (HASTA QUE TERMINE)
BUENO NADA UNA DE LAS MEJORES CANCIONES DE INTOXICADOS,
CHAU Q LES SALGA LA CANCION ES FACIL JA BUE CHAU
AGUENTE INTOXICADOS!!!
Facundo Bonilla
notevagustar_kq@hotmail.com




[De la guitarra chords][De la guitarra cifra]
© LaCuerda.net · aviso legal · privacidad · es · en · pt · contacto