Acordes de Guitarra » I »Intoxicados » Nunca Quise (Tab)

Nunca Quise
Intoxicados

Letras, Acordes y Tabs para Guitarra, Bajo y Ukulele

  • Intro : Bm, C#m,  F#m , Bm , E, A, A7
    
       D                  Bm
    Nunca quise tanto a nadie como vos
         C#m                 F#m
    Por eso es que empiezo a dudar
        Bm                         E
    Si seremos hermanos que nos separaron
           A                   A7
    Y nosotros sin saberlo nos volvimos a juntar
    
        D                Bm
    Tu sangre es roja, la mía también
          C#m                   F#m
    Pero no me equivoco, algo tendremos que ver
            Bm                  E
    Somos indios latinos con guitarra eléctrica
       A             A7
    Y comunicados a través de Internet
    
    
  • G    D  E  A          D  E  A          D  E   A   F#m  Bm     E E/D
    2º G e|-------------4/5--2~~---------4/5--2---------------------------|
         B|---------5/7--------------5/7---------5-3-2~~------0--2-3-0~~--|
         G|---------------------------------------------------------------|
         D|---------------------------------------------------------------|
         A|---------------------------------------------------------------|
         E|---------------------------------------------------------------|
    
    
          D              Bm
    Nunca quise tanto a nadie como a vos
        C#m                  F#m
    por eso es que empiezo a dudar...
          D                      E
    Si seremos hermanos que nos separaron
         A                         A7
    y nosotros sin saberlo nos volvimos a juntar.
    
    
    1º G    D  Bm  C#m  F#m         D    E   A      A7
    
  •      D              Bm
    Nunca quise tanto a nadie como a vos
        C#m                  F#m
    por eso es que empiezo a dudar...
          Bm                     E
    Si seremos hermanos que nos separaron
         A                         A
    y nosotros sin saberlo nos volvimos a juntar.
    
    
        D                  Bm
    Tu sangre es roja, la mía tambien
         C#m                   F#m
    pero no me equivoco, algo tendremos que ver
          Bm                     E
    Somos indios latinos con guitarra eléctrica
       A                A
    y comunicados a través de internet.
    
    
    
  • intro
    -------------------------------
    -------------------------------
    -2(acompaña a la bateria)------
    -------------------------------
    
    
    nunca kise...nadie como vos
    ------------------------------
    --------------2--2-2----------
    -0--0-0-----------------------
    ------------------------------
    
    por eso...  dudar
    ------------2--2-2------------
    -4--4-4-----------------------
    ------------------------------
    ------------------------------
    
    si seremos... nos separaron
    ---------------0--0-0---------
    -2--2-2-----------------------
    ------------------------------
    ------------------------------
    
    y nosotros sin saberlo nos...
    ------------------------------
    -0--0-0--------------0--0-0---
    ------------------------------
    ------------------------------
    
    (sigue todo igual)
    
    
    
    para odiar hay ke kerer
    ------------------------------
    ------------0--0--0--0--------
    0--0--2--2--------------------
    ------------------------------
    
    para destruir hay ke hacer
    ------------------------------
    ------------0--0--0--0--------
  • +
    ¡Colabora con nosotros!
    Envíanos tu versión de esta canción
  • Tutorial
    Nunca Quise (como tocar en guitarra)
    Luis Tenti
    6:27
  • Tutorial
    COMO TOCAR NUNCA QUISE INTOXICADOS / TUTORIAL GUITARRA ACORDES / PUNTEO INTRO
    7:38

Letra de Nunca Quise
Nunca quise tanto a nadie como vos
Por eso es que empiezo a dudar
Si seremos hermanos que nos separaron
Y nosotros sin saberlo nos volvimos a juntar
Tu sangre es roja, la mía también
Pero no me equivoco, algo tendremos que ver
Somos indios latinos con guitarra eléctrica
Y comunicados a través de Internet
Para odiar hay que querer
Para destruir hay que hacer
Y estoy orgulloso de quererte romper
La cabeza contra la pared
Y por todas esas cosas que tenemos en común
Hace tiempo ya marchaste de acá
Te cansaste de mi, yo me canse de vos
Pero cuando nos miramos sabemos que no es verdad
Porque tanto te quise y tanto te quiero
Siempre una marca tuya llevará mi corazón
Disculpa si te parece raro
Pero comparto la opinión que escuché en una canción: Let It Be
Si la amas déjala ser, si la quieres déjala volar
Nunca fui tu patrón, no quisiera cambiarte
y no quiero que pierdas tu personalidad
Para odiar hay que querer
Para destruir hay que hacer
Y estoy orgulloso de quererte romper
La cabeza contra la pared
Para dejar hay que beber
Para morir primero hay que nacer
Siento ganas nuevamente de tirarme a tus pies
Y llevarte a mi morada otra vez
Para odiar hay que querer
Para destruir hay que hacer
Y estoy orgulloso de quererte romper
La cabeza contra la pared
Para dejar hay que beber
Para morir primero hay que nacer
Siento ganas nuevamente de tirarme a tus pies
Y llevarte a mi morada otra vez
Si lo sembrás lo recoges
Y si esperás vas a entender
Cuando las cosas salen como no las espero,
La vida me hace mas guerrero.
Cualquier duda ( chano223@hotmail.com) :)
Aguante "Desde Abajo RNR"




[Nunca Quise chords][Nunca Quise cifra]
© LaCuerda.net · aviso legal · privacidad · es · en · pt · contacto