Acordes de Guitarra » I »Intoxicados » Viviendo con él (Tab)

Viviendo con él
Intoxicados

Letras, Acordes y Tabs para Guitarra, Bajo y Ukulele

  • LA*
    Ando con ganas de verte
    SOL*
    despues de aquella vez
    LA*
    Me confestastes mi tortura
    SOL*
    y quize desaparecer
    LA*
    Pero como iba a hacerlo
    SOL*
    sospechando q iba a entender
    LA*
    lo q se sienta llevar
    SOL*
    veneno en la piel
    
    Est:
    
    LA                SOL
    
  •    A                  G
    e|-------------------------------------
    B|-2-0-2--2---0-2-0-2p0-0-0---0-0--0-0-
    G|-2-2-2--2---2-2-2-2p0-0-0---0-0--0-0-
    D|-2-2-2--2---2-2-2-2p0-0-0---0-0--0-0-
    A|-------------------------------------
    E|-------------------------------------
    
    Hace eso durante toda la intro y estrofa.
    En la intro, despues de un par de veces, despues del SOL
    la otra guitarra hace esto:
    
    e|--------------------------------  va alternando estos
    B|--------------------------------  dos punteos
    G|-4-6--6-4--4-4--o-a-veces--6--6-
    D|-5s7--7s5--5-5---esto:-----7--7-
    A|-5s7--7s5--5-5-------------7--7-
    E|--------------------------------
    
    y despues del LA hace:
    
  • +
    ¡Colabora con nosotros!
    Envíanos tu versión de esta canción

Letra de Viviendo con él
Ando con ganas de verte
despues de aquella vez
Me confestastes mi tortura
y quize desaparecer
Pero como iba a hacerlo
sospechando q iba a entender
lo q se sienta llevar
veneno en la piel
Est:
ESTAS VIVIENDO CON EL
ESTAS VIVIENDO CON EL




[Viviendo con él chords][Viviendo con él cifra]
© LaCuerda.net · aviso legal · privacidad · es · en · pt · contacto
DINAMICO