Tablatura para Guitarra de Intoxicados: Se fue al cielo
Conexión · Inscripción
Letras y Acordes
Pantalla Completa
Imprimir
Versión Texto
Añadir Favorito
Otras Versiones

Mostrar Diagramas
Desfile Automático
Manipular Acordes
Formato del Texto


Se fue al cielo(TAB)

Intoxicados

calidad:
intx0034
AUTOR: Intoxicados  corregir
ALBUM: desconocido
Enviado por alan
bueno les dejo el punteo que hace al principio y al final:

E----------------------------------------------------E
B----------------------------------------------------B
G------------7-----------7---------------------------G
D—7p9—-9-7-9—-7----7-5-7—-5----7-5-7-5-7-7/9—7p9-7---D     X2
A----------------------------------------------------A
E----------------------------------------------------E

E--------------------------------------------------------
B—8p10h8---------10-10p12---8p10h8-----------------------
G--------9-7—-7p9-------------------9-7—-----7—7p9h7-----
D----------------------------------------7p9—-9----------
A--------------------------------------------------------
E--------------------------------------------------------

-----------------------------------------------------------E
--8p10h8--------10-10p12---8p10h8--------------------------B
---------9-7—7p9------------------9-7-----9h7p9h7p9h7p9h7--G
--------------------------------------7p9------------------D
-----------------------------------------------------------A
-----------------------------------------------------------E

y en el final hace asi:

E-----------------------------------------------------E
B-----------------------------------------------------B
G------------7----------7-----------------------------G
D—7p9-—9-7-9—-7---7-5-7—-5---7-5-7-5-7-7/9-7p9-7------D   X2
A-----------------------------------------------------A
E-----------------------------------------------------E

E--------------------------------------------7p8-7-8-8/10—10-10-8--------
B--------------------5p7-5-5p7---7p8-7-12-10----------------------12-12--
G-----------7—7p9-7------------------------------------------------------
D—7p9-9-7-9--------------------------------------------------------------
A------------------------------------------------------------------------
E------------------------------------------------------------------------

--8p10-8---10-8----14-12----14-12-14-15-------E
---------12-----12-------15-------------------B
----------------------------------------------G
----------------------------------------------D
----------------------------------------------A
----------------------------------------------E

tambien les dejo las notas que toca en el estribillo:

E------------E
B------------B
G------7-----G
D--5p7--7-5--D
A------------A
E------------E


ahí creo que esta bastante bien cualquier duda
correcion o cancion les dejo mi mail:
alan92_rojo@hotmail.com

muchas gracias
Este fichero es trabajo propio de su transcriptor y representa su interpretación personal de la canción. El material contenido en esta página es
para exclusivo uso privado, por lo que se prohibe su reproducción o retransmisión, así como su uso para fines comerciales.


© LaCuerda.net · Aviso Legal · Privacidad