Acordes de Guitarra » I »Intoxicados » Las cosas que no se tocan (Tab)

Las cosas que no se tocan
Intoxicados

  • Letra y Acordes
    |--------------------------3---3---|
    |0-0-0-0--0-0-0-0--0-0-0-0---0---0-|
    |2-2-2-2--2-2-2-2--2-2-2-2---2---2-|
    |----------------------------------|
    |----------------------------------|
    |----------------------------------|
    
    (CON RIFF DE BASE)
    
    Me gustan las chicas,
    me gustan las drogas
    Me gusta mi guitarra,
    James Brown y Madonna
    
    Me gustan los perros,
    me gusta mi estéreo
    Me gusta la calle
    y algunas otras cosas.
    
                 MI
    
  • Tablatura
    e|--------------------------------------------------
    B|--------------------------------------------------
    G|----2----------2----------2-----------------------
    D|--2---2-2----2---2-2----2---2-2-----2----2--2-----
    A|--0---0-0----0---0-0----0---0-0-----0----0--0-----
    E|---------------------------------3p---3p----------
    Guitarra 2:
    e|--------------------------------------------------
    B|--------------------------------------------------
    G|--------------------------------------------------
    D|------------7-----------7----------7----------5--7
    A|----------7-----------7----------7--------5/9---7-
    E|--------------------------------------------------
    
    Guitarra 1: (RIFF)
    e|-------------------------------------------
    B|-------------------------------------------
    G|---2----------2----------2-----------------
    D|-2---2-2----2---2-2----2---2-2-----2-----2-
    A|-0---0-0----0---0-0----0---0-0-----0-----0-
    
  • Tablatura
    e|--------------------------------------------------
    B|--------------------------------------------------
    G|----2----------2----------2-----------------------
    D|--2---2-2----2---2-2----2---2-2-----2----2--2-----
    A|--0---0-0----0---0-0----0---0-0-----0----0--0-----
    E|---------------------------------3p---3p----------
    Guitarra 2:
    e|--------------------------------------------------
    B|-------------------------------------------------
    G|-------------------------------------------2-----
    D|------------2-----------2----------2---2h4----2--
    A|----------0-----------0----------0-----------0---
    E|-------------------------------------------------
    
    e|-------------------------------------------
    B|-------------------------------------------
    G|------------------------------------5b-2---
    D|------------2--------------2---------------
    A|----------0-------------0------------------
    E|-------------------------------------------
    
  • +
    ¡Colabora con nosotros!
    Envíanos tu versión de esta canción
  • Tutorial
    las cosas que no se tocan intoxicados-como tocar con guitarra
    5:04

Letra de Las cosas que no se tocan
(CON RIFF DE BASE)
Me gustan las chicas,
me gustan las drogas
Me gusta mi guitarra,
James Brown y Madonna
Me gustan los perros,
me gusta mi estéreo
Me gusta la calle
y algunas otras cosas.
Pero lo que más me gusta
son las cosas que no se tocan
Me gusta el dinero para comprarme lo que quiero
Me gustan las visitas para matar el tiempo
Me gusta esta luz, me gusta esta sombra
Me gustan los grupos que no están de moda
Me gustan los autos, los trenes, los barcos
Me gusta que al que espero no tarde más de un rato
(CON RIFF DE BASE)
Me gusta el arroz, me gusta el puchero
Me gusta el amarillo, el rojo, el verde y el negro
Pero lo que más me gusta...(x2)
Por eso me gusta el rock (REPITE HASTA EL FINAL)



© LaCuerda.net · aviso legal · privacidad · contacto