Acordes de Guitarra » I »Intoxicados » Pila Pila (Tab)

Pila Pila
Intoxicados

Letras, Notas, Punteos, Tablaturas y Acordes de Guitarra (Tabs & Chords)

  • Letra y Acordes
    e-----2-5------------2-5-------------
    b--3--------------3-----------3------
    g----------2---------------2---------x2
    D------------------------------------
    A------------------------------------
    E------------------------------------
    
    
          RE
    1) Tengo muchas ganas de escribir una canción,
                          LA7
    pero no se me ocurre nada,
    
    Entonces agarro la cuchara, el tenedor, el cuchillo
                    RE
    y empiezo a cocinar.
    
    Después de hacer esta mezcla
              RE7              SOL
    yo pensaba tirarme una siestita,
    
  • Letra y Acordes
    RE
    Tengo muchas ganas de escribir una canción,
                          LA
    pero no se me ocurre nada, entonces
    
    agarro la cuchara , el tenedor, el cuchillo
                    RE
    y empiezo a cocinar, después de hacer esta mezcla
    
                              SOL
    Yo pensaba tirarme una siestita,
                        RE           LA
    para estar por las noches pila-pila
      RE
    pila-pila
    
    Tengo muchas ganas de escribir una canción,
    
    Pero no se me ocurre nada, entonces
    
    
  • Letra y Acordes
    D
    Tengo muchas ganas de escribir una canción
                          A
    pero no se me ocurre nada
    
    entonces agarro la cuchara el tenedor
                                 D
    el cuchillo y empiezo a cocinar
    
    despues de hacer esta mezcla
                                G
    yo pensaba tirarme una siestita
                       D
    para estar por la noche
          A         D
    pila pila  pila pila...
    
    
    "ahí va de vuelta"....
    
    
  • Tablatura
    e|------------------------          e|----------------------------
    b|------------------------          B|----------------------------
    G|---7--11--14------------          G|---12--16--19--7------------
    D|----------------7-------          D|----------------------------
    A|---5--9---12------------          A|---10--14--17--5------------
    E|----------------5-------          E|----------------------------
    
    Durante la primera estrofa usa el RIFF 1
    
    RIFF 1
    
    RE
    Tengo muchas ganas de escribir una canción,
                          LA
    pero no se me ocurre nada, entonces
    
    agarro la cuchara , el tenedor, el cuchillo
                    RE
    y empiezo a cocinar, después de hacer esta mezcla
    
    
  • Tablatura
        D
    e------2-5------------2-5-------------
    b--3----------------3-----------------
    g-------------2--------------2--------
    D-------------------------------------
    A-------------------------------------
    E--------------------------------------repite
    
    Este motivo varía según el tono que toca Pity:
    
    Estrofa 1- la primera vez se toca junto con la guitarra de Pity
    
        D
    e------2-5------------2-5-------------
    b--3----------------3-----------------
    g-------------2--------------2--------
    D-------------------------------------
    A-------------------------------------
    E-------------------------------------repite
    
    
  • Tab p/Bajo
    Las intro están hechas pizzicato con cuerdas de violín y cello.
    Pero se pueden tocar con guitarra y el bajo,les paso las tabs
    
    
    Intro
    
    
    g-------2------------2-----------------
    D--0--4---------0--4-------------------
    A----------0-------------0--------------
    E--------------------------------------repite
    
    Este motivo varía según el tono que toca Pity:
    
    Estrofa 1- la primera vez se toca junto con la guitarra de Pity
    
        D
    g-------2------------2-----------------
    D--0--4---------0--4-------------------
    A----------0-------------0--------------
    E--------------------------------------repite
    
    
       A
    
    g---------------------------
    D-------2------------2------
    A--0--4---------0--4--------
    E-----------0-----------0---repite
    
        G
    
    g----4-7-------4-7--------
    D--5---------5------5-----
    A--------5-----------------
    E--------------------------repite
    
    
    
    La 2º vuelta solamente rasguido y de ahí en más.
    
    **********
    Dice Pity Álvarez: “el título y el espíritu del tema
    hacen referencia a un estado
  • +
    ¡Colabora con nosotros!
    Envíanos tu versión de esta canción

Letra de Pila Pila
1) Tengo muchas ganas de escribir una canción,
pero no se me ocurre nada,
Entonces agarro la cuchara, el tenedor, el cuchillo
y empiezo a cocinar.
Después de hacer esta mezcla
yo pensaba tirarme una siestita,
para estar por la noche
pila-pila, pila-pila. (va de vuelta)
Estribillo
RE (arrastra el RE desde 1º traste)
Pila-pila, pila-pila,
pila-pila, pila-pila
pila-pila, pila-pila
siempre una pila la vida
No me confundas con ese gatito
(arrastra desde traste 1) RE
vos sabes, que yo soy un ratón
pilas-pilas-pilas
pa mover el corazón
necesito estar pila toda la vida
no como ese conejito que no dura nada,
yo soy ratón a batería
(recitado)
”Y vos, y vos que me decías que siempre tocaba la guitarrita
que nunca iban a triunfar mis temas
y mira ahora como suenan
y ahora que debería dejarte
preferiría que vayamos a comer unos ricos calientitos...”
1) Tengo muchas ganas de escribir una canción,
pero no se me ocurre nada,
Entonces agarro la cuchara, el tenedor, el cuchillo
y empiezo a cocinar,
Después de hacer esta mezcla
yo pensaba tirarme una siestita,
para estar por la noche
pila-pila, pila-pila
Estribillo
Pila-pila, pila-pila
pila-pila, pila-pila
pila-pila, pila-pila
siempre pila en la vida
No me confundas con ese gatito
vos sabes, yo soy un ratón
pilas-pilas-pilas
pa mover el corazón
necesito estar pila toda la vida
no como ese conejito que no dura nada,
yo soy ratón a batería
No como ese conejito que no dura nada,
yo soy ratón a 12 volts...
No..como ese conejito… que no dura nada
Enchufame a 380 !!!
voy pila, siempre pila
Conejo reproductor
Dice Pity Álvarez: “el título y el espíritu del tema
hacen referencia a un estado químico, anímico, emocional
y espiritual donde la energía se transforma en acción.
Donde la acción se transforma en fiesta.
Donde la fiesta celebra la vida.
Donde la vida celebra la música.”
Se lo dedico a Niko y a su banda "La Tripera"
Caro

Videos de Pila Pila
[ver más videos]

[ver todas las canciones]


© LaCuerda.net · Aviso Legal · Privacidad